Oops, an error
Loading. Please wait.

The End Of Fraud Tab

version 2
version 2

Whole song

416 views 1 this week
no commentswrite comment
1 2 3 4 5
please rate
add to favorites
launch autoscroll
font size
0
reset
how to read this tab
guitar tuner
Autoscroll
slow
fast
+/-
esc
set tempo
stop
Help us to improve Ultimate-Guitar.com Take our survey!
×
Author
Difficulty
Tuning
novice
D A D G B E
Hello,
My name is Carrington Hyatt
I am 14 years old
This is my first tab here
http://www.youtube.com/user/ChiefSmoreSmore?feature=mhum
Tuning: Drop D
Please rate if you like it : )

I think there is another guitar but i'm going to tab that later

E|-----5-----5-----------2-----2-----------| A
B|---3-----3---3-------3-----3---3---------|
G|-3-----3-------3---2-----2-------2-------| repeat as needed
D|-----------------------------------------|
A|-----------------------------------------|
D|-----------------------------------------|

E|-3-------------------2-------------------| B
B|-3-------------------3-------------------|
G|-3-------------------2-------------------|
D|-----------------------------------------|
A|-----------------------------------------|
D|-----------------------------------------|

E|-3---5--3--2-----------|
B|-3---3--3--3-----------| X2
G|-3---3--3--2-----------|
D|-----------------------|
A|-----------------------|
D|-----------------------|

Repeat "A"

E|-3-------------------2--2h3p2--------------| C
B|-3-------------------3-------3-------------|
G|-3-------------------2---------------------|
D|-------------------------------------------|
A|-------------------------------------------|
D|-------------------------------------------|

E|-3----------2----------2-3/5-------------| D
B|-3----------3----------------------------|
G|-3----------2----------------------------|
D|-----------------------------------------|
A|-----------------------------------------|
D|-----------------------------------------|

E|-3----10-------------2-------------------| E
B|-3----------11---10--3-------------------|
G|-3-------------------2-------------------|
D|---12----12----12------------------------|
A|-----------------------------------------|
D|-----------------------------------------|
                        *Slide fingers all the way to the next notes
E|-5-------5-----3-----2/-------------------| F
B|-3-------------------3/-------------------|
G|-3----3-----3--------2/-------------------|
D|------------------------------------------|
A|------------------------------------------|
D|------------------------------------------|

E|-----17----17---------14----14-----------| G
B|---15----15--15-----15----15--15---------|
G|-15----15------15-14----14------14-------|--Play this 8 times
D|-----------------------------------------|
A|-----------------------------------------|
D|-----------------------------------------|

E|-14-----14----14--14----14----14-----------| H
B|---15-----15--------15----15---------------|
G|-----14-----14--------14----14-------------|
D|-------------------------------------------|
A|-------------------------------------------|
D|-------------------------------------------|

E|---------------------------------------|I
B|---------------------------------------|
G|-11----9----14---11---14----10---------|Play this 6x
D|-x--x8-x-x8-x-x3-x-x5-x--x3-x-x5-------|
A|-9-----7----12---9----12----8----------|
D|-------------------------------------- |

E|-----------------------------------|J
B|-----------------------------------|
G|-----------------------------------|
D|--12-------------------------------|
A|--12----Play these chords 33 times-|
D|--12-------------------------------|

I think there is another guitar that is playing at where "I" starts
if there is here is the tab
GUITAR 2: AT PART "I" (on tab)
E|-----------------------------------|K
B|-----------------------------------|
G|-----------------------------------|
D|-12----11----10----8---------------|
A|-12-x8-11-x8-10-x8-8-x8------------|Play this 6x then play "J" on this tab
D|-12----11----10----8---------------|

Please rate if you like it : )
Suggest correction
What's this?
You can suggest a correction to this tab. Community and Mods will review your correction and vote to approve or reject it.
comments
We did not receive enough feedback on this tab! Please rate:
print report bad tab
1 2 3 4 5
guest
You may want to rate the tab now too:
select rating
Please do not post tabs as comments. Select "correction" instead!