Oops, an error
Loading. Please wait.

This Abyss Tab

version 1
version 1

Whole song

578 views 1 this week
2 commentsread comments
1 2 3 4 5
1 last vote to show rating
add to favorites
launch autoscroll
font size
0
reset
how to read this tab
guitar tuner
Autoscroll
slow
fast
+/-
esc
set tempo
stop
Help us to improve Ultimate-Guitar.com Take our survey!
×
-------------------------------------------------------------------------------
                             THIS ABYSS - Armor for Sleep
-------------------------------------------------------------------------------
Tabbed by: Eric Hsieh
Email: ericjhsieh@gmail.com

Tuning: C# G# C# F# A# D# (ie drop D for Eb tuning)
        Db Ab Db Gb Bb Eb


I won't bother marking timing since you are probably looking at this simply for the 
(fingering) and can listen to the CD like every other non-deaf person.  Only the power 
are noted, but feel free to embellish with full chords as you see fit.


   Intro/Verse
e|---------------------------------------------------------------------------|
B|---------------------------------------------------------------------------|
G|---------------------------------------------------------------------------|
D|---------------------------------------------------------------------------|
A|---------------------------------------------------------------------------|
E|-9-12-9-12-7-0-7-0-7-5-0-5-0-5-4-0-----------------------------------------|


   Chorus
e|---------------------------------------------------------------------------|
B|---------------------------------------------------------------------------|
G|-4-----------------------4-------------------------------------------------|
D|-4----4--5--0-----4--5---4---4---------------------------------------------|
A|-2----4--5--0-----4--5---2---4---------------------------------------------|
E|------4--5--0-----4--5-------4---------------------------------------------|


| /  slide up
| \  slide down
| h  hammer-on
| p  pull-off
| ~  vibrato
| +  harmonic
| x  Mute note
===============================================================================
Suggest correction
Give kudos to tab author, rate the tab!
1 2 3 4 5
comments
print report bad tab
2 comments total.
0 reply
Crisco Twister 30 Dec 13, 2008 12:56 PM

Whoops, looks like I forgot the Pre-Chorus.
e|------------------------------------------------------------------|
B|------------------------------------------------------------------|
G|--------11----------11--------------------------------------------|
D|------------------------------------------------------------------|
A|--------9-----------9---------------------------------------------|
E|--4--5--------4--5------------------------------------------------|

0 reply
PatrickDoesABCs 602 Jan 02, 2009 06:20 PM

pretty good but you left out the lead [even though it's easy enough to just tab out] cause i already tabbed out the song... but we play it differant, but you have a really good point of veiw on the song, the pre-chorus, its alternate picking, and theres a slid out from 12 on D, and for that you get 4*

guest
You may want to rate the tab now too:
select rating
Wanna post a correction for this tab? Suggest correction