Oops, an error
Loading. Please wait.

Truth About Heaven Tab

version 1
version 1

Whole song

Interactive

31,663 views 15 this week
16 commentsread comments
1 2 3 4 5
excellent!
x 31
add to favorites
launch autoscroll
font size
0
reset
how to read this tab
guitar tuner
Autoscroll
slow
fast
+/-
esc
set tempo
stop
Help us to improve Ultimate-Guitar.com Take our survey!
×
Title: The Truth About Heaven
Artist: Armor For Sleep
Album: What To Do When You Are Dead

Copyright © Equal Vision Records 2005
Version 1.0 - 01/30/2005

Tabbed by: Chris Frazier (cdf0103@mail.ecu.edu)

This is the second in what I hope will become a series of tabs
from Armor For Sleep's sophomore album "What To Do When You Are
Dead". I hope you enjoy them and learn something. This is my
favorite track so far on the new album. If you have any
questions, comments, or additions PLEASE e-mail them to me
at cdf0103@mail.ecu.edu and I'll add/change them if they make
sense and of course give you full credit.

.  - palm mute
/  - slide up and down to
b  - Bend
() - Natural harmonics
*  - Pinch harmonics
h  - Hammer
p  - Pull off
"  - Tremolo Picking
x  - Mute

Tuning:(D A D G B E)

Intro/Chorus (Lead)
E|--------------------------------------------------------------------------------------|
B|--------------------------------------------------------------------------------------|
G|---14-14/9-11-11-11-11-11-11-11-11--14-14/9-11-11-12-12-12-12-12--9/11-11-9-9-9-9-9-9-|
D|---x--x-/x-x--x--x--x--x--x--x--x---x--x-/x-x--x--x--x--x--x--x---x/x--x--x-x-x-x-x-x-|
A|---12-12/7-9--9--9--9--9--9--9--9---12-12/7-9--9--10-10-10-10-10--7/9--9--7-7-7-7-7-7-|
D|--------------------------------------------------------------------------------------|

---------------------------------------||
---------------------------------------||
--9/11-11-7-7-7-7---14-14-14--14-14-14-||
x-x/x--x--x-x-x-x-x-x--x--x---x--x--x--||
x-7/9--9--5-5-5-5-x-12-12-12--12-12-12-||
---------------------------------------||


Intro/Chorus (Rhythm)
E|--------------------------------------------------------------------------------------|
B|--------------------------------------------------------------------------------------|
G|---7-7-7-7-7-7-7-7-7-7-7-7-7-7-7----6-6-6-6-6-----6-6-6-6-6-6-6---7-7-7-7-7-7-7-7-7-7-|
D|---5-5-5-5-5-5-5-5-5-5-5-5-5-5-5-x--7-7-7-7-7--x--8-8-8-8-8-8-8-x-9-9-9-9-9-9-9-9-9-9-|
A|---5-5-5-5-5-5-5-5-5-5-5-5-5-5-5-x--7-7-7-7-7--x--8-8-8-8-8-8-8-x-9-9-9-9-9-9-9-9-9-9-|
D|---5-5-5-5-5-5-5-5-5-5-5-5-5-5-5-x--7-7-7-7-7--x--8-8-8-8-8-8-8-x-9-9-9-9-9-9-9-9-9-9-|
Exact strumming not shown, just pay attention to when the changes are in comparison to

----------------------------------------||
----------------------------------------||
----------------------------------------||
-x-9-9-9-9-9-9-9-9-x-9-9-9-9-x-9-9-9-9--||
-x-9-9-9-9-9-9-9-9-x-9-9-9-9-x-9-9-9-9--||
-x-9-9-9-9-9-9-9-9-x-9-9-9-9-x-9-9-9-9--||
the lead intro riff.

Pre-Verse (Right/Lead)
E|---14-14------------------------------||
B|--------------------------------------||
G|---------12-14-14--12--14-14-12-14-12-||
D|--------------------------------------||
A|--------------------------------------||
D|--------------------------------------||

Verse (Left)
E|---------------------------------------------||---------------------------------------------|
B|---------------------------------------------||------3-3-3-3-3-3-3------7-7-7-7-------------|
G|-----------------------------------7/9-9-9/7-||-----------------------------------7/9-9-9/7-|
D|---2--2-2-2-2-2-2-2-x-5--5-5-5-5-x-x/x-x-x/x-||---2----------------x-5----------x-x/x-x-x/x-|
A|---2--2-2-2-2-2-2-2-x-5--5-5-5-5-x-5/7-7-7/5-||---2----------------x-5----------x-5/7-7-7/5-|
D|---2--2-2-2-2-2-2-2-x-5--5-5-5-5-x-----------||---2----------------x-5----------x-----------|

|---------------||
|---------------|| First part twice
|-----7/9-9-9/7-|| Second part twice
|---x-x/x-x-x/x-|| Third part once
|---x-5/7-7-7/5-||
|---x-----------||


Verse (Right)
E|---------------------------------------------||-PRE-VERSE-(RIGHT/LEAD)-|
B|---------------------------------------------||-PRE-VERSE-(RIGHT/LEAD)-|
G|-----------------------------------7/9-9-9/7-||-PRE-VERSE-(RIGHT/LEAD)-|
D|---2--2-2-2-2-2-2-2-x-5--5-5-5-5-x-x/x-x-x/x-||-PRE-VERSE-(RIGHT/LEAD)-|
A|---2--2-2-2-2-2-2-2-x-5--5-5-5-5-x-5/7-7-7/5-||-PRE-VERSE-(RIGHT/LEAD)-|
D|---2--2-2-2-2-2-2-2-x-5--5-5-5-5-x-----------||-PRE-VERSE-(RIGHT/LEAD)-|

|--14-14-------------------------------------||
|--------------------------------------------|| First part twice
|--------12-14-14--12--7/9-9-9/7---7/9-9-9/7-|| Second part 3 times
|----------------------x/x-x-x/x-x-x/x-x-x/x-|| Third part once
|----------------------5/7-7-7/5-x-5/7-7-7/5-||
|--------------------------------x-----------||


Breakdown (Left)
E|--------------------------------------------------------------------------||
B|--------------------------------------------------------------------------||
G|--------------------------------------------------------------------------|| Played distorted,
D|---0-0-0-0-0-0-0-0-4-4-4-4-4-4-4-4-5-5-5-5-5-5-5-5-5-5-5-5-5-5-5-5-0------|| let last D5 ring
A|---0-0-0-0-0-0-0-0-4-4-4-4-4-4-4-4-5-5-5-5-5-5-5-5-5-5-5-5-5-5-5-5-0------|| then right guitar plays
D|---0-0-0-0-0-0-0-0-4-4-4-4-4-4-4-4-5-5-5-5-5-5-5-5-5-5-5-5-5-5-5-5-0------|| Breakdown/Outro

Breakdown (Right)
E|--------------------------------------------------------------------------------------------||
B|--------------------------------------------------------------------------------------------||
G|---11-11-11-11-11-11-11-11-6-6-6-6-6-6-6-6-14-14-14-11-11-11-11-11-14-14-14-11-11-11-11-11--||
D|---x--x--x--x--x--x--x--x--x-x-x-x-x-x-x-x-x--x--x--x--x--x--x--x--x--x--x--x--x--x--x--x---||
A|---9--9--9--9--9--9--9--9--4-4-4-4-4-4-4-4-12-12-12-9--9--9--9--9--12-12-12-9--9--9--9--9---||
D|--------------------------------------------------------------------------------------------||

Breakdown/Outro (Right)
E|-------------------------------------------------------------------||
B|---3-3-3-3-3-3-3-3-7-7-7-7-7-7-7-7-8-8-8-8-8-8-8-8-8-8-8-8-8-8-8-8-||
G|---2-2-2-2-2-2-2-2-6-6-6-6-6-6-6-6-7-7-7-7-7-7-7-7-7-7-7-7-7-7-7-7-||
D|---0-0-0-0-0-0-0-0-4-4-4-4-4-4-4-4-5-5-5-5-5-5-5-5-5-5-5-5-5-5-5-5-||
A|---0-0-0-0-0-0-0-0-4-4-4-4-4-4-4-4-5-5-5-5-5-5-5-5-5-5-5-5-5-5-5-5-||
D|---0-0-0-0-0-0-0-0-4-4-4-4-4-4-4-4-5-5-5-5-5-5-5-5-5-5-5-5-5-5-5-5-||

Outro Chorus (Left/Lead)
E|---14-14-------------------------------12-12------------------------------||
B|-----------------------------------------------------------15-15----------||
G|---------12-14-14--12--14-14-12-14-12--------12-14-14--12--------12-14-12-||
D|--------------------------------------------------------------------------||
A|--------------------------------------------------------------------------||
D|--------------------------------------------------------------------------||
 This one was hard to make out because of the delay but,
 if you use a delay it will sound very close. End on
 14 on E
Suggest correction
comments
print report bad tab
16 comments total. Showing first comments.
+1 reply
Wallace 10 wrote on May 20 2005, 12:00 am

Fantastic tabs on the new album. Hope to see more.

+1 reply
ckyrulesass 10 wrote on February 6 2006, 07:43 am

the truth about heaven is a kick ass song

+1 reply
robt18 10 wrote on July 4 2006, 09:56 pm

awesome song, great tab, keep up the good work

guest
You may want to rate the tab now too:
select rating
Wanna post a correction for this tab? Suggest correction