Oops, an error
Loading. Please wait.

Very Invisible Tab

version 1
version 1

Whole song

2,106 views 1 this week
5 commentsread comments
1 2 3 4 5
x 3
add to favorites
launch autoscroll
font size
0
reset
how to read this tab
guitar tuner
Autoscroll
slow
fast
+/-
esc
set tempo
stop
Help us to improve Ultimate-Guitar.com Take our survey!
×
Author
Tuning
D A D G B E
The other guy's tab is horrible, so here ya go.
Tabbed by: Chris McKinnon
Artist: Armor for Sleep
Song: Very Invisible
This is an amazing song, enjoy.
               
Intro: Lead
E|------9p--7----5h---7---7----9p--7-----5h---7--5h--7---||
B|---7---------7------------------------5----------------||  x5
G|-------------------------------------------------------||
D|-------------------------------------------------------||
A|-------------------------------------------------------||
D|-------------------------------------------------------||

Intro: Rhythm (:06)
E|-------------------------------------------------------||
B|-------------------------------------------------------||  x1
G|----------------------99999----------------------66666-||
D|---999999999999999----xxxxx----444444444444444---xxxxx-||
A|---999999999999999----77777----444444444444444---44444-||
D|---999999999999999-------------444444444444444---------||


Verse: Lead  (:18)
E|-------------------------------------------------------||
B|-------------------------------------------------------||
G|-------------------------------------------------------||
D|--44----77----99---------------------------------------||
A|--44----77----99---------------------------------------||
D|--44----77----99---------------------------------------||

(:36)
E|-------------------------------------------------------||
B|--7---7----55---5--------------------------------------||
G|-------------------------------------------------------||
D|-------------------------------------------------------||
A|-------------------------------------------------------||
D|-------------------------------------------------------||


Verse: Rhythm (:35)
E|-------------------------------------------------------||
B|-------------------------------------------------------||
G|-------------------------------------------------------||
D|---999999--xx--999999----------------------------------||
A|---999999--xx--999999----------------------------------||
D|---999999--xx--999999----------------------------------||
     ......      ......


Pre-Chorus: Lead (:47)
E|-------------------------------------------------------||
B|-------------------------------------------------------||
G|----6----2---1~-------6-----4----2~--------------------||
D|-------------------------------------------------------||
A|-------------------------------------------------------||
D|-0----0----0------0----0-----0-------------------------||

E|-------------------------------------------------------||
B|-------------------------------------------------------||
G|----6----4----1~---------------------------------------||
D|-------------------------------------------------------||
A|-------------------------------------------------------||
D|-0----0----0-------------------------------------------||

Pre-Chorus: Rhythm (1:00)
E|-------------5-----------------------------------------||
B|-5-----5---------2-------------------------------------||
G|----6-----7--------------------------------------------||
D|-------------------------------------------------------||
A|-------------------------------------------------------||
D|-------------------------------------------------------||

Chorus: Lead
E|------9p--7----5h---7---7----9p--7-----5h---7--5h--7---||
B|---7---------7------------------------5----------------||  x8
G|-------------------------------------------------------||
D|-------------------------------------------------------||
A|-------------------------------------------------------||
D|-------------------------------------------------------||

Chorus: Rhythm
E|-------------------------------------------------------||
B|-------------------------------------------------------||  x2
G|----------------------99999----------------------66666-||
D|---999999999999999----xxxxx----444444444444444---xxxxx-||
A|---999999999999999----77777----444444444444444---44444-||
D|---999999999999999-------------444444444444444---------||


Second Verse: Lead
E|-------------------------------------------------------||
B|--7--7-----55--5---------------------------------------||  <-Continues
G|-------------------------------------------------------||   Throughout
D|-------------------------------------------------------||
A|-------------------------------------------------------||
D|-------------------------------------------------------||

Second Verse: 
E|-------------------------------------------------------||
B|-------------------------------------------------------||  
G|-------------------------------------------------------||
D|--999999999999999-xx--999999999999999------------------||
A|--999999999999999-xx--999999999999999------------------||
D|--999999999999999-xx--999999999999999------------------||
    ..............      ...............
(1:47)
E|-------------------------------------------------------||
B|-------------------------------------------------------||
G|-------------------------------------------------------||
D|--44----77----99---------------------------------------||
A|--44----77----99---------------------------------------||
D|--44----77----99---------------------------------------||

Chorus: Lead
E|------9p--7----5h---7---7----9p--7-----5h---7--5h--7---||
B|---7---------7------------------------5----------------||  x8
G|-------------------------------------------------------||
D|-------------------------------------------------------||
A|-------------------------------------------------------||
D|-------------------------------------------------------||

Chorus: Rhythm
E|-------------------------------------------------------||
B|-------------------------------------------------------||  x2
G|----------------------99999----------------------66666-||
D|---999999999999999----xxxxx----444444444444444---xxxxx-||
A|---999999999999999----77777----444444444444444---44444-||
D|---999999999999999-------------444444444444444---------||

Fill: Lead
E|-------------------------------------------------------||
B|-------------------------------------------------------||  Pinch Harmonic?
G|----6------2------1~-----------------------------------||   
D|-------------------------------------------------------||
A|-------------------------------------------------------||
D|-0-----0-----0-----------------------------------------||

Breakdown: Lead (2:30) (Lead stops at 2:54)
E|--9----9----10-----7h---9----10---7h---9--10----7h---9-||
B|-----7----7-----7--------------7-------------7---------||  x4
G|-------------------------------------------------------||   
D|-------------------------------------------------------||
A|-------------------------------------------------------||
D|-------------------------------------------------------||

Breakdown: Rhythm ("I tried my heart doesn't beat...")
E|-------------------------------------------------------||
B|-------------------------------------------------------||  x4
G|-------------------------------------------------------||   
D|--444444444777777777779999999121212121212121212--------||
A|--444444444777777777779999999121212121212121212--------||
D|--444444444777777777779999999121212121212121212--------||


Fill: Lead
E|-------------------------------------------||
B|-------------------------------------------||
G|----6----2---1~-------6-----4----2~--------||
D|-------------------------------------------||
A|-------------------------------------------||
D|-0----0----0------0----0-----0-------------||

Chorus: Lead
E|------9p--7----5h---7---7----9p--7-----5h---7--5h--7---||
B|---7---------7------------------------5----------------||  x8
G|-------------------------------------------------------||
D|-------------------------------------------------------||
A|-------------------------------------------------------||
D|-------------------------------------------------------||

Chorus: Rhythm
E|-------------------------------------------------------||
B|-------------------------------------------------------||  x2
G|----------------------99999----------------------66666-||
D|---999999999999999----xxxxx----444444444444444---xxxxx-||
A|---999999999999999----77777----444444444444444---44444-||
D|---999999999999999-------------444444444444444---------||

Outro: Lead (3:59)
E|------9p--7----5h---7---7----9p--7-----5h---7--5h--7---||
B|---7---------7------------------------5----------------||  x alot
G|-------------------------------------------------------||
D|-------------------------------------------------------||
A|-------------------------------------------------------||
D|-------------------------------------------------------||

Outro: Rhythm (3:54)("I know you feel me next to you...")
E|-------------------------------------------------------||
B|-------------------------------------------------------||  
G|-------------------------------------------------------||
D|--4477799121212~---------------------------------------||
A|--4477799121212~---------------------------------------||
D|--4477799121212~---------------------------------------||



Enjoy...questions / comments email me @ xdumpweedx@hotmail.com







Suggest correction
Give kudos to tab author, rate the tab!
1 2 3 4 5
comments
print report bad tab
5 comments total. Showing first comments.
+1 reply
paulie-cakes 10 Aug 21, 2006 10:59 AM

nice tab dude. :]

+1 reply
CrimsonRoc 30 Aug 25, 2006 12:21 AM

This is definitely missing some tech. (ie hammer ons and pull offs in the main riff)

+1 reply
§ArmyofAngels§ 107 Sep 18, 2007 05:44 PM

not perfect, but still the best one ive seen

guest
You may want to rate the tab now too:
select rating
Wanna post a correction for this tab? Suggest correction