Oops, an error
Loading. Please wait.

Very Invisible Tab

version 2
version 2

Whole song

1,300 views 1 this week
3 commentsread comments
1 2 3 4 5
1 last vote to show rating
add to favorites
launch autoscroll
font size
0
reset
how to read this tab
guitar tuner
Autoscroll
slow
fast
+/-
esc
set tempo
stop
Help us to improve Ultimate-Guitar.com Take our survey!
×
Author
Difficulty
Tuning
intermediate
D A D G B E
Tabbed by: Joshua Garcia (joshuag523@aol.com)

Tabs For the song: Very Invisible by Armor For Sleep
Please rate and let me know if you have any corrections. Thank you.

*Updated on 2/3/10 - Corrected as suggested below. Suggestion for Breakdown 
(which I'm thankful for since I clearly missed it) was slightly fixed and is 
100% correct. 

Tuning: Drop D (D A D G B E)


Intro
Guitar 1:
E||---9-7-0-5-7--7--7/9-7-0-7-0-5-7---|
B||-7---------------------------------|
G||-----------------------------------| x5
D||-----------------------------------|
A||-----------------------------------|
D||-----------------------------------|



Guitar 2:
E||----------------------------------------------------------------------------------------|
B||----------------------------------------------------------------------------------------|
G||--------------------------9-9-xxxx-9-9-xxxx--------------------------6-6-xxxx-6-6-xxxx--|
D||-99999999999999999999999--x-x-xxxx-x-x-xxxx--44444444444444444444444-x-x-xxxx-x-x-xxxx--|
A||-99999999999999999999999--7-7-xxxx-7-7-xxxx--44444444444444444444444-4-4-xxxx-4-4-xxxx--|
D||-99999999999999999999999---------------------44444444444444444444444--------------------|



Verse
Guitar 1:
E||-(7)-------5--|
B||--------------|
G||--------------|
D||--------------|
A||--------------|
D||--------------|



Guitar 2:
E||--------------------------------------------------------------------|
B||--------------------------------------------------------------------|
G||--------------------------------------------------------------------|
D||-11\4-4-4-4-4-4-4-4-7-7-7-7-0-0-0-0-----9-----9-----9-----------9\--|
A||-11\4-4-4-4-4-4-4-4-7-7-7-7-0-0-0-0-----9-----9-----9-----------9\--|
D||-11\4-4-4-4-4-4-4-4-7-7-7-7-0-0-0-0-9-9-9-9-9-9-9-9-9-9-9-9-9-9-9\--|
       . . . . . . . . . . . . . . . . . .   . .   . .   . . . . .

E||----------------------------------------------------------------|
B||----------------------------------------------------------------|
G||----------------------------------------------------------------|
D||-4-4-4-4-4-4-4-4-7-7-7-7-0-0-0-0-----9-----9-----9-----------9--|
A||-4-4-4-4-4-4-4-4-7-7-7-7-0-0-0-0-----9-----9-----9-----------9--|
D||-4-4-4-4-4-4-4-4-7-7-7-7-0-0-0-0-9-9-9-9-9-9-9-9-9-9-9-9-9-9-9--|
    . . . . . . . . . . . . . . . . . .   . .   . .   . . . . .


Guitar 1:
E||----------------------------------|
B||---7----7-5---5-------------------|
G||------------------6--6b7r6---4h6--| x2
D||-7----7-----7--------------4------|
A||----------------------------------|
D||----------------------------------|



Pre-Chorus
Guitar 1:
E||-------------4-----|---------------5-----|
B||-5-------------5---|---5-------------5---|
G||---6---7-----------|-----6---7-4---------|
D||---------7---------|---------------------|
A||-------------------|---------------------|
D||-------------------|---------------------|


Guitar 1/2
E||---------|
B||---------|
G||-x-x-x-x-|
D||-x-x-x-x-|
A||-x-x-x-x-|
D||---------|



Chorus
Guitar 1:
E||---9-7-0-5-7--7--7/9-7-0-7-0-5-7---|
B||-7---------------------------------|
G||-----------------------------------| x7
D||-----------------------------------|
A||-----------------------------------|
D||-----------------------------------|


Guitar 2:
E||----------------------------------------------------------------------------------------|
B||----------------------------------------------------------------------------------------|
G||--------------------------9-9-xxxx-9-9-xxxx--------------------------6-6-xxxx-6-6-xxxx--| x2
D||-99999999999999999999999--x-x-xxxx-x-x-xxxx--44444444444444444444444-x-x-xxxx-x-x-xxxx--|
A||-99999999999999999999999--7-7-xxxx-7-7-xxxx--44444444444444444444444-4-4-xxxx-4-4-xxxx--|
D||-99999999999999999999999---------------------44444444444444444444444--------------------|



Verse:
Guitar 2:
E||----------------------------------------------------------------|
B||----------------------------------------------------------------|
G||----------------------------------------------------------------| x2
D||-4-4-4-4-4-4-4-4-7-7-7-7-0-0-0-0-----9-----9-----9-----------9--|
A||-4-4-4-4-4-4-4-4-7-7-7-7-0-0-0-0-----9-----9-----9-----------9--|
D||-4-4-4-4-4-4-4-4-7-7-7-7-0-0-0-0-9-9-9-9-9-9-9-9-9-9-9-9-9-9-9--|
    . . . . . . . . . . . . . . . . . .   . .   . .   . . . . .


Guitar 1:
E||----------------------------------|
B||---7----7-5---5-------------------|
G||------------------6--6b7r6---4h6--| x4
D||-7----7-----7--------------4------|
A||----------------------------------|
D||----------------------------------|


Pre-Chorus
Guitar 2:
E||---------|
B||---------|
G||-x-x-x-x-|
D||-x-x-x-x-|
A||-x-x-x-x-|
D||---------|



Chorus
Guitar 1:
E||---9-7-0-5-7--7--7/9-7-0-7-0-5-7---|
B||-7---------------------------------|
G||-----------------------------------| x7
D||-----------------------------------|
A||-----------------------------------|
D||-----------------------------------|



Guitar 2:
E||----------------------------------------------------------------------------------------|
B||----------------------------------------------------------------------------------------|
G||--------------------------9-9-xxxx-9-9-xxxx--------------------------6-6-xxxx-6-6-xxxx--| x2
D||-99999999999999999999999--x-x-xxxx-x-x-xxxx--44444444444444444444444-x-x-xxxx-x-x-xxxx--|
A||-99999999999999999999999--7-7-xxxx-7-7-xxxx--44444444444444444444444-4-4-xxxx-4-4-xxxx--|
D||-99999999999999999999999---------------------44444444444444444444444--------------------|



Breakdown
Guitar 2:
E||----------------------------------|
B||----------------------------------|
G||----------------------------------| x4
D||-4-4-4-7-7-9-9-0-0-0-0-0-0-0-0-0--|
A||-4-4-4-7-7-9-9-0-0-0-0-0-0-0-0-0--|
D||-4-4-4-7-7-9-9-0-0-0-0-0-0-0-0-0--|


E||--------------------------|
B||--------------------------|
G||---444\66\9999/7/666666---| x4
D||---xxx\xx\xxxx/x/xxxxxx---|
A||---222\44\7777/5/444444---|
D||--------------------------|




Guitar 1:
E||-9-----9-----10---10-----9-----9-----|
B||---7-----7------7----7-----7-----7---|
G||-----9-----9-----------9-----9-------| x3
D||-------------------------------------|
A||-------------------------------------|
D||-------------------------------------|


E||-------------------------------------------|
B||-9-9-9-9-9-9-9-9-10-10-10-10-10-10-10-10---|
G||-------------------------------------------| x2
D||-------------------------------------------|
A||-------------------------------------------|
D||-------------------------------------------|



Pre-Chorus
Guitar 1/2
E||---------|
B||---------|
G||-x-x-x-x-|
D||-x-x-x-x-|
A||-x-x-x-x-|
D||---------|



Chorus
Guitar 1:
E||---9-7-0-5-7--7--7/9-7-0-7-0-5-7---|
B||-7---------------------------------|
G||-----------------------------------| x7
D||-----------------------------------|
A||-----------------------------------|
D||-----------------------------------|



Guitar 2:
E||----------------------------------------------------------------------------------------|
B||----------------------------------------------------------------------------------------|
G||--------------------------9-9-xxxx-9-9-xxxx--------------------------6-6-xxxx-6-6-xxxx--|
D||-99999999999999999999999--x-x-xxxx-x-x-xxxx--44444444444444444444444-x-x-xxxx-x-x-xxxx--|
A||-99999999999999999999999--7-7-xxxx-7-7-xxxx--44444444444444444444444-4-4-xxxx-4-4-xxxx--|
D||-99999999999999999999999---------------------44444444444444444444444--------------------|


E||-------------------------------------------------------------------------------------------|
B||-------------------------------------------------------------------------------------------|
G||-----------------------------9-9-xxxx-9-9-xxxx--------------------------6-6-xxxx-6-6-xxxx--|
D||-999999999999999-x-x-999999--x-x-xxxx-x-x-xxxx--44444444444444444444444-x-x-xxxx-x-x-xxxx--|
A||-999999999999999-x-x-999999--7-7-xxxx-7-7-xxxx--44444444444444444444444-4-4-xxxx-4-4-xxxx--|
D||-999999999999999-x-x-999999---------------------44444444444444444444444--------------------|



Outro
Guitar 2:
E||----------------------------|
B||----------------------------|
G||----------------------------|
D||-4-4-4-7-7-9-9-12-12-12-12--|
A||-4-4-4-7-7-9-9-12-12-12-12--|
D||-4-4-4-7-7-9-9-12-12-12-12--|




Tablature Legend
----------------
 h   hammer-on
 p   pull-off
 b   bend
 pb  pre-bend
 r   release bend
 ~   hold / vibrato
 .   palm mute
 /   slide up
 \   slide down
 *   pinch harmonic
 '   natural harmonic
 x   mute note
 T   tap
Suggest correction
Give kudos to tab author, rate the tab!
1 2 3 4 5
comments
print report bad tab
3 comments total.
0 reply
Cyburcide 10 Sep 07, 2009 11:43 PM

This is perfect, one of Armor's best songs. Any chance you can tab out "Know What You Have" from The Way Out Is Broken EP?

0 reply
smileanddie 37 Feb 03, 2010 07:40 PM

there is actually a guitar in the background during the breakdown. towards the end of it

|-----------------------------|
|-----------------------------|
|------444\66\99/77/666666----|
|------xxx\xx\xx/xx/xxxxxx----|
|------222\44\77/55/444444----|
|-----------------------------|

pretty sure those are the correct octaves

0 reply
smileanddie 37 Feb 03, 2010 07:49 PM

oh and the opening when the rhythm guitar comes in as well in the chorus you've got the first octaves incorrect

|-------|
|-------|
|---9---|
|---x---|
|---7---|
|-------|

guest
You may want to rate the tab now too:
select rating
Wanna post a correction for this tab? Suggest correction