Oops, an error
Loading. Please wait.

Walking Alone At Night Tab

1,356 views 1 this week
no commentswrite comment
1 2 3 4 5
3 more votes to show rating
add to favorites
launch autoscroll
font size
0
reset
how to read this tab
guitar tuner
Autoscroll
slow
fast
+/-
esc
set tempo
stop
Help us to improve Ultimate-Guitar.com Take our survey!
×
Author
Difficulty
Guitar 1 intro:
e|--------12-------12----|--10-----------7--7--5----|
B|-----------------------|----------------55-55-----|
G|--11-11---11--11----11-|------11-9----------------|
D|-----------------------|--------------------------|
A|-----------------------|--------------------------|
E|-----------------------|--------------------------|

Guitar 2 Intro:
e|---------------------------------------|----------------------------------|
B|--------------------------3------------|----------------------------------|
G|---2-0---2-0----2-0---2/4--4-----------|-7-7---------------4--------------|
D|--4-4---4-4----4-4------------2/4/2/0--|-7-7--7--9-9-9------4--4/5/4/0----|
A|-2-----0-------------------------------|-5-5--7--9-9-9--------------------|
E|-------------3-------------------------|------5--7-7-7---0----------------|

Guitar 1 Chorus:
e|----------------------------------------------------------|
B|----------------------------------------------------------|
G|----------------------------------------------------------|
D|--7-7--9-9-9-9-9-9--5-5--7-7-7-7-7-7-7--2-2--5-5-5-5-5-5--|
A|--7-7--9-9-9-9-9-9--5-5--7-7-7-7-7-7-7--2-2--5-5-5-5-5-5--|
E|--5-5--7-7-7-7-7-7--3-3--5-5-5-5-5-5-5--0-0--3-3-3-3-3-3--|

e|-------------------------------------------|
B|-------------------------------------------|
G|-----------11-11-11-11--------11-11-11-11--|
D|-2-2--9-9--x--x--x--x---7-7----x--x--x--x--|
A|-2-2--9-9--9--9--9--9---7-7----9--9--9--9--|
E|-0-0--7-7---------------5-5----------------|

Guitar 2 Chorus: 
e|-10-------9--------7--5-5/7--|
B|----11-11---11-11------------|
G|-----------------------------|
D|-----------------------------|
A|-----------------------------|
E|-----------------------------|

Pre Verse: (some guitar effect)
e|----------------------|
B|----------------------|
G|----------7-7---------|
D|---9-9----7-7---5-5---|
A|---9-9----5-5---5-5---|
E|---7-7----------3-3---|

Pre Chorus:
e|---------------------------------------------------------------|
B|---------------------------------------------------------------|
G|--12-12-12-12-12-12-11-11-11-11-11-11--9-9-9-9-9-9-9--11--11---|
D|---x--x--x--x--x--x--x--x--x--x--x--x--x-x-x-x-x-x-x---x--x----|
A|--10-10-10-10-10-10--9--9--9--9--9--9--7-7-7-7-7-7-7---9--9----|
E|---------------------------------------------------------------|

Bridge:
e|--------------------------------------------------------------------------------|
B|--------------------------------------------------------------------------------|
G|-------6-6-6-6-7-7-7-7-9-9-9-9-------11-11-11-11-12--12--12--12--14--14--14--14-|
D|--5-5--x-x-x-x-x-x-x-x-x-x-x-x--5-5--x--x--x--x---x---x---x---x---x---x---x---x-|
A|--5-5--4-4-4-4-5-5-5-5-7-7-7-7--5-5--9--9--9--9--10--10--10--10--12--12--12--12-|
E|--3-3---------------------------3-3---------------------------------------------|

e|-----------------------------------------------------|
B|-----------------------------------------------------|
G|--------14--14--14--14--12--12--12--12--11-11-11-11--| Whole Bridge Twice Also
D|---7-7--x--x--x--x---x---x---x---x---x--x--x--x--x---|
A|---7-7--12--12--12--12--10--10--10--10--9--9--9--9---| (2x)
E|---5-5-----------------------------------------------|

Guitar 1 End:
e|--------|
B|--------|
G|--------|
D|--5-5---|
A|--5-5---|
E|--3-3---|

Guitar 2 End:
e|--------|
B|--------|
G|---12---|
D|----x---|
A|---10---|
E|--------|
Suggest correction
Give kudos to tab author, rate the tab!
1 2 3 4 5
comments
print report bad tab
guest
You may want to rate the tab now too:
select rating
Wanna post a correction for this tab? Suggest correction