Oops, an error
Loading. Please wait.

Walking At Night Alone tab

version 4
version 4

Whole song

Interactive

2,399 views 1 this week
4 commentsread comments
1 2 3 4 5
x 5
add to favorites
×
Save as Personal and add changes to this tab that will be seen only by you. Learn more ›
×
You can save this tab as Personal to edit and correct it or add notes. All changes will be seen only by you. Learn more »
launch autoscroll
font size
0
reset
how to read this tab
guitar tuner
edit
Autoscroll
slow
fast
+/-
esc
set tempo
stop
Author
Difficulty
Armor For Sleep
Walking At Night Alone
Tabbed by: Todd Blake
tblake505@yahoo.com
Tuning: Dropped-D

Intro / Verses
Guitar 1 (rhythm) - (clean w/ slow phaser)

E---------------------------------------------------------------------------|
B---------------------------------------------------------------------------|
G----------0-----------------0-----------------0-------------7------------0-|
D------7-----7---7-------7-----7---7-------7-----7---7---7/9---9--7/9\7-----|
A----9---9-----9-------9---9-----9-------9---9-----5------------------------|
D--9-----------------7-----------------5------------------------------------|

Plays 4x during all four lines of intro and all lines of verses


Guitar 2 (lead) - (clean)
E---------12--------------12-------------------12--------------12-----------|
B-14--------------14-----------14------14--------------14-----------14------|
G------11--------------11----------11-------11--------------11----------11--|
D---------------------------------------------------------------------------|
A---------------------------------------------------------------------------|
D---------------------------------------------------------------------------|

Plays 2x during first two lines of intro


Guitar 2 (lead) (Slight Dist. w/ Delay about 500-600ms)
E---------------------------------------------------------------------------|
B-5------------------5-----------------5------------------------------------|
G-x------------------7-----------------6------------------------------------|
D-5-------------------------------------------------------------------------|
A---------------------------------------------------------------------------|
D---------------------------------------------------------------------------|

Plays 2x during last two lines of intro last 2 lines of verses


End of Intro / Pre-Chorus


Guitar 1 (rhythm) (Slight Dist.)
E---------------------------------------------------------------------------|
B-------------0-------------------------------------------------------------|
G-------------2-------0-----------------------------------------------------|
D---5----5----2----------4-------4b(5)r4------------------------------------|
A---5----5----0-------------2-----------------------------------------------|
D---5----5--------2---------------------------------------------------------|


Guitar 2 (lead) (clean)
E---10------------7----7-----5----------------------------------------------|
B--------7----------5----5--------------------------------------------------|
G-------------9-------7----7------------------------------------------------|
D---------------------------------------------------------------------------|
A---------------------------------------------------------------------------|
D---------------------------------------------------------------------------|

play both twice (leave out guitar 1 bend second time)


Chorus


Guitar 1 (rhythm) (Distortion)
E----|----------------------------------------------------------------------|
B----|----------------------------------------------------------------------|
G----|----------------------------------------------------------------------|
D-77-|-999-999-999--55--777-777-777--22--555-555-555--00--99-99999-77-77777-|
A-77-|-999-999-999--55--777-777-777--22--555-555-555--00--99-99999-77-77777-|
D-77-|-999-999-999--55--777-777-777--22--555-555-555--00--99-99999-77-77777-|

Guitar 2 (lead) (Distortion)
E----|10--9----7--7--7--10--9----7--7--7-10--9----7--7--7-10-------9--------|
B----|--7--7-10-10-10-----7--7-10-10-10----7--7-10-10-10-----77777----------|
G----|---9--9--------------9--9-------------9--9----------------------------|
D-77-|----------------------------------------------------------------------|
A-77-|----------------------------------------------------------------99999-|
D-77-|----------------------------------------------------------------------|

Post 1st Chorus break is bass + delayed lead from intro/verse


End Of Second Verse Part

Guitar 1 (rhythm) (Distortion)
E----------------------------------------------------|
B----------------------------------------------------|
G----------------------------------------------------|
D-15-/-5--5-5-5---7--7-7-7-------2--2-2-2-2--2-2-2-2-|
A--x-/-x--x-x-x---x--x-x-x-------x--x-x-x-x--x-x-x-x-|
D-15-/-5--5-5-5---7--7-7-7-------2--2-2-2-2--2-2-2-2-|

Guitar 2 (lead) (Distortion)
E----------------------------------------------------|
B----------------------------------------------------|
G-7--/12-121212--11-111111-------7--7--9--9-11111111-|
D-x--/-x--x-x-x---x--x-x-x-------x--x--x--x--x-x-x-x-|
A-5--/10 101010---9--9-9-9-------5--5--7--7--9-9-9-9-|
D----------------------------------------------------|


Bridge

Both Guitars (Distortion)
E----------------------------------------------------------------------------------------------------|
B----------------------------------------------------------------------------------------------------|
G------666677779999-------666677779999-------141414141212121211111111-------141414141212121211111111-|
D-555--xxxxxxxxxxxx--555--xxxxxxxxxxxx--999---x-x-x-x-x-x-x-x-x-x-x-x--999---x-x-x-x-x-x-x-x-x-x-x-x-|
A-555--444455557777--555--444455557777--999--1212121210101010-9-9-9-9--999--1212121210101010-9-9-9-9-|
D-555----------------555----------------999----------------------------999---------------------------|

Ending


Both Guitars
E---------------------------|
B---------------------------|
G---------------------------|
D-5----------5----------5---|
A-5----------5----------5---|
D-5----------5----------5---|

Order

-intro
-verse
-prechorus
-chorus
-postchorus = bass + the delay lead
-verse
-end of second verse part
-chorus
-bridge
-intro part
-bridge
-ending

Listen to the song for the exact timing and order but this is all of the parts included
the album version.

Lyrics

holding my breath walking at night with you
i get to hear your voice again
if this is a dream, maybe you'll stay with me
stay with me, please stay with me

this is where we met
we're back here again

don't leave me alone
don't leave me alone
i can't stand the way the world feels
when i'm walking alone
[x2]

can you please keep talking to me now
tell me all about your new friends
i know you don't think i can hear you now
but i'm listening, i'm listening

and this is where we met
we're back here again
(back here back here again)

don't leave me alone
don't leave me alone
i can't stand the way the world feels
when i'm walking alone
[x2]

love seems like a mess
when it won't let go of me
but when it's gone i don't feel
when it's gone i don't feel alive
[x2]

don't leave me alone
don't leave me alone
i can't stand the way the world feels
when i'm walking alone
[x2]

love seems like a mess
when it won't let go of me
but when it's gone i don't feel
when it's gone i don't feel alive
when it's gone i don't feel alive

            
            
Suggest correction
Creating personal tab
Creating personal tab
You can edit any tab online and save it as your Personal.

You can edit, replace or remove any tab part or add personal notes – all changes will be seen only by you.

Personal tabs can be accessed anytime from any device, even offline.
Learn more »
comments
print report bad tab
4 comments total. Showing first comments.
0 reply
thechaostheory 81 Jan 30, 2013 11:47 AM

E---------------------------------------------------------------------------|
B---------------------------------------------------------------------------|
G----------0-----------------0-----------------0-------------7------------0-|
D------7-----7---7-------7-----7---7-------7-----7---7---7/9---9--7/9\7-----|
A----9---9-----9-------9---9-----9-------9---9-----5------------------------|
D--9-----------------7-----------------5------------------------------------|

This should be as follows:

E---------------------------------------------------------------------------|
B---------------------------------------------------------------------------|
G----------0-----------------0-----------------0-------------7--------------|
D------7-----7---7-------7-----7---7-------7-----7---7---7/9---9------------|
A----9---9-----9-------9---9-----9-------9---9-----5--------------7/9\7-5--|
D--9-----------------7-----------------5------------------------------------|

0 reply
thechaostheory 81 Jan 30, 2013 11:50 AM

[E---------------------------------------------------------------------------|
B---------------------------------------------------------------------------|
G----------0-----------------0-----------------0-------------7------------0-|
D------7-----7---7-------7-----7---7-------7-----7---7---7/9---9--7/9\7-----|
A----9---9-----9-------9---9-----9-------9---9-----5------------------------|
D--9-----------------7-----------------5------------------------------------|]

Should be played as this:

[E---------------------------------------------------------------------------|
B---------------------------------------------------------------------------|
G----------0-----------------0-----------------0-------------7--------------|
D------7-----7---7-------7-----7---7-------7-----7---7---7/9---9------------|
A----9---9-----9-------9---9-----9-------9---9-----5--------------7/9\7--5-|
D--9-----------------7-----------------5------------------------------------|]

And assuming this one post actually shows the tab properly, please ignore my last entry!

Other than that, great tab mate!

0 reply
thechaostheory 81 Jan 30, 2013 11:51 AM


E---------------------------------------------------------------------------|
B---------------------------------------------------------------------------|
G----------0-----------------0-----------------0-------------7------------0-|
D------7-----7---7-------7-----7---7-------7-----7---7---7/9---9--7/9\7-----|
A----9---9-----9-------9---9-----9-------9---9-----5------------------------|
D--9-----------------7-----------------5------------------------------------|

Should be played as this:

E---------------------------------------------------------------------------|
B---------------------------------------------------------------------------|
G----------0-----------------0-----------------0-------------7--------------|
D------7-----7---7-------7-----7---7-------7-----7---7---7/9---9------------|
A----9---9-----9-------9---9-----9-------9---9-----5--------------7/9\7--5-|
D--9-----------------7-----------------5------------------------------------|

And assuming this one post actually shows the tab properly, please ignore my last entry!

Other than that, great tab mate!

guest
You may want to rate the tab now too:
select rating
Wanna post a correction for this tab? Suggest correction