Oops, an error
Loading. Please wait.

Williamsburg bass

version 1
version 1

Whole song

Interactive

835 views 1 this week
no commentswrite comment
1 2 3 4 5
1 last vote to show rating
add to favorites
×
Save as Personal and add changes to this tab that will be seen only by you. Learn more ›
×
You can save this tab as Personal to edit and correct it or add notes. All changes will be seen only by you. Learn more »
launch autoscroll
font size
0
reset
guitar tuner
edit
Autoscroll
slow
fast
+/-
esc
set tempo
stop
ok, there is something i must tell you people out in computer land, this is my first tab 
done in my life EVER and i got really bored and decided to make an attempt at tabbing 
a RAD!! song cause its late and i've got nothing better to do.

i also must warn you that im the drummer in my band and write some lead and rythm guitar 
mostly NO base because that's not my forte but i know at least some of this is right so 
worry, it's not a total loss.
enough of boring you, PLAY THE SONG!


Intro/chorus/ending
G|-------------------------------|
D|-------------------------------|
A|-------------------------------|(X2)
D|-3-344-7-777-7-7---------------|

G|---------------------------------|
D|---------------------------------|
A|---------------------------------|
D|-8-888-4-444-4-4--6-666-9-999-9-9|

G|-------------------------------|
D|-------------------------------|
A|-------------------------------|(X2)
D|-3-344-7-777-7-7---------------|

G|-------------------------------|
D|-------------------------------|
A|-------------------------------|
D|-8-888-4-444-4-4--5-4-8-9-0----|

Verse
"hold your own jacket please"
G|----------|
D|----------|(x2)
A|----------|
D|-0-0-0----|

G|----------|
D|----------|
A|0-1-2-----|
D|----------|

"I'm not in the mood"
G|----------|
D|----------|
A|----------|
D|-5-7-8----|

"millions of trains under the ground"
G|----------|
D|----------|(x2)
A|----------|
D|-0-0-0----|

G|----------|
D|----------|
A|0-1-2-----|
D|----------|

"this city was a blueprint for hell"
I don't know what this part-sorry

Chorus
"passed out, sleeping at your party...
G|-------------------------------|
D|-------------------------------|
A|-------------------------------|(X2)
D|-3-344-7-777-7-7---------------|

G|---------------------------------|
D|---------------------------------|
A|---------------------------------|
D|-8-888-4-444-4-4--6-666-9-999-9-9|

"too hip to even clean your nose out..."
G|-------------------------------|
D|-------------------------------|
A|-------------------------------|(X2)
D|-3-344-7-777-7-7---------------|

"you will all die in Williamsburg"
G|-------------------------------|
D|-------------------------------|
A|-------------------------------|
D|-8-888-4-444-4-4--5-4-8-9-0----|

G|----------|
D|----------|
A|----------|
D|5-4-8-9-0-|

Verse 2
"bored again, watching the rats"
G|----------|
D|----------|(x2)
A|----------|
D|-0-0-0----|

G|----------|
D|----------|
A|0-1-2-----|
D|----------|

"eat all your food"
G|----------|
D|----------|
A|----------|
D|-5-7-8----|

"at least you'll be used to"
G|----------|
D|----------|(x2)
A|----------|
D|-0-0-0----|

"the place you'll be soon"
G|----------|
D|----------|
A|0-1-2-----|
D|----------|

"this city was a blueprint for hell"
Again, sorry..

Chorus
"passed out, sleeping at your party...
G|-------------------------------|
D|-------------------------------|
A|-------------------------------|(X2)
D|-3-344-7-777-7-7---------------|

G|---------------------------------|
D|---------------------------------|
A|---------------------------------|
D|-8-888-4-444-4-4--6-666-9-999-9-9|

"too hip to even clean your nose out..."
G|-------------------------------|
D|-------------------------------|
A|-------------------------------|(X2)
D|-3-344-7-777-7-7---------------|

"you will all die in Williamsburg"
G|-------------------------------|
D|-------------------------------|
A|-------------------------------|
D|-8-888-4-444-4-4--5-4-8-9-0----|

G|----------|
D|----------|
A|----------|
D|5-4-8-9-0-|

Interlude
"do you know how obvious you are..."
G|-------------------------------|
D|-------------------------------|
A|---2222----1111----0000--------|
D|-------------------------------|

"Brooklyn's a deathbed..."
G|-------------------------------|
D|-------------------------------|
A|-4-4-4-5555-2-2-2-4444---------|
D|-------------------------------|

"stuck at the party that was lame to begin"
G|-------------------------------|
D|-------------------------------|
A|-1-1-1-2222-0-0-0-2222---------|
D|-------------------------------|

G|-------------------------------|
D|-------------------------------|
A|-44444455222222441111112222----|
D|-------------------------------|

G|----------|
D|----------|(X2)
A|----------|
D|5-4-8-9-0-|

Simmer Down part Thing
"at least you'll be used to..."
G|----------|
D|----------|
A|----------|
D|0----0----|

"the place you'll be soon"
G|----------|
D|----------|
A|----------|
D|-4--------|

(again sorry i don't know the build-up crazy snare action part)

Solo-y Riff
G|-------------------------------|
D|-------------------------------|
A|-------------------------------|(X2)
D|-3-344-7-777-7-7---------------|

G|---------------------------------|
D|---------------------------------|
A|---------------------------------|
D|-8-888-4-444-4-4--6-666-9-999-9-9|

Chorus
"passed out, sleeping at your party...
G|-------------------------------|
D|-------------------------------|
A|-------------------------------|(X2)
D|-3-344-7-777-7-7---------------|

G|---------------------------------|
D|---------------------------------|
A|---------------------------------|
D|-8-888-4-444-4-4--6-666-9-999-9-9|

"too hip to even clean your nose out..."
G|-------------------------------|
D|-------------------------------|
A|-------------------------------|(X2)
D|-3-344-7-777-7-7---------------|

"you will all die in Williamsburg"
G|---------------------------------|
D|---------------------------------|
A|---------------------------------|
D|-8-888-4-444-4-4--6-666-9-999-9-9|

G|-------------------------------|
D|-------------------------------|
A|-44444455222222441111112222----|
D|-------------------------------|

G|----------|
D|----------|(X2)
A|----------|
D|5-4-8-9-0-|

"you will all die"

yes i know you are wanting to insult me maybe by my possibly bad tabbing(i'll find out 
time i guess) but i have tab as unregistered so ha! i could be anybody in the world and 
don't know! haha! unless you're quinton, ryan, leon, or anyone else that might know...
Suggest correction
Creating personal tab
Creating personal tab
You can edit any tab online and save it as your Personal.

You can edit, replace or remove any tab part or add personal notes – all changes will be seen only by you.

Personal tabs can be accessed anytime from any device, even offline.
Learn more »
Give kudos to tab author, rate the tab!
1 2 3 4 5
comments
print report bad tab
guest
Wanna post a correction for this tab? Suggest correction