Oops, an error
Loading. Please wait.

Williamsburg Tab

version 1
version 1

Whole song

Interactive

2,803 views 1 this week
3 commentsread comments
1 2 3 4 5
accurate
x 5
add to favorites
launch autoscroll
font size
0
reset
how to read this tab
guitar tuner
Tab Pro tools
  • play this tab
  • loop segment
  • change instrument
  • show fretboard
  • metronome
×
Best way to learn
"Williamsburg"
Autoscroll
slow
fast
+/-
esc
set tempo
stop
Contributor
-------------------------------------------------------------------------------
                             WILLIAMSBURG - Armor For Sleep
-------------------------------------------------------------------------------
*This is the DEMO VERSION of this song!*
Tabbed by: Hannah
Email: jortskid@yahoo.com

Tuning: drop d (DADGBE)

Intro 
-Guitar 1-
e|---------------------------------------------------------------------------|
B|---------------------------------------------------------------------------|
G|---------------------------------------------------------------------------|
D|------4---------4----------------------------------------------------------|
A|----5---5-----5---5----5--7----5--4----------------------------------------|
D|--0--------0---------4-------4---------------------------------------------|

-Guitar 2-
e|----------------------------------------------|
B|----------------------------------------------|
G|-------------------------------7--6-----------|
D|-----(rest until last 2 notes)----------------|
A|----------------------------------------------|
D|----------------------------------------------|


Verse (repeat however many times there are until chorus...)
-Guitar 1- 
e|----------------------------------------------|
B|----------------------------------------------|
G|----------------------------------------------|
D|--0-0-0---0-0-0---4-4-4---9-9-9---------------|
A|--0-0-0---0-0-0---4-4-4---9-9-9---------------|
D|--0-0-0---0-0-0---4-4-4---9-9-9---------------|

-Guitar 2-
e|----------------------------------------------|
B|----------------------------------------------|
G|-111111--111111--1111-9---7-7-6---------------|
D|--x-x-x---x-x-x---x-x-x---x-x-x---------------|
A|--9-9-9---9-9-9---9-9-7---5-5-4---------------|
D|----------------------------------------------|

Chorus
-Guitars 1 & 2- (not 100% positive on rhythm... just listen for it)
e|---------------------------------------------------------------------------|
B|---------------------------------------------------------------------------|
G|---------------------------------------------------------------------------|
D|--0-0-0---9-9--9--9---0-0-0---9-9--9--9---8--8-8---0--0-0-0-0--5-4-8-9-0---|
A|--0-0-0---9-9--9--9---0-0-0---9-9--9--9---8--8-8---0--0-0-0-0--5-4-8-9-0---|
D|--0-0-0---9-9--9--9---0-0-0---9-9--9--9---8--8-8---0--0-0-0-0--5-4-8-9-0---|


Verse (repeat however many times there are until chorus...)
-Guitar 1- 
e|----------------------------------------------|
B|----------------------------------------------|
G|----------------------------------------------|
D|--0-0-0---0-0-0---4-4-4---9-9-9---------------|
A|--0-0-0---0-0-0---4-4-4---9-9-9---------------|
D|--0-0-0---0-0-0---4-4-4---9-9-9---------------|

-Guitar 2-
e|----------------------------------------------|
B|----------------------------------------------|
G|-111111--111111--1111-9---7-7-6---------------|
D|--x-x-x---x-x-x---x-x-x---x-x-x---------------|
A|--9-9-9---9-9-9---9-9-7---5-5-4---------------|
D|----------------------------------------------|


Chorus
-Guitars 1 & 2- (not 100% positive on rhythm... just listen for it)
e|---------------------------------------------------------------------------|
B|---------------------------------------------------------------------------|
G|---------------------------------------------------------------------------|
D|--0-0-0---9-9--9--9---0-0-0---9-9--9--9---8--8-8---0--0-0-0-0--5-4-8-9-0---|
A|--0-0-0---9-9--9--9---0-0-0---9-9--9--9---8--8-8---0--0-0-0-0--5-4-8-9-0---|
D|--0-0-0---9-9--9--9---0-0-0---9-9--9--9---8--8-8---0--0-0-0-0--5-4-8-9-0---|



-Guitar 1-
e|----------------------------------------------------------------|
B|----------------------------------------------------------------|
G|----------------------------------------------------------------|
D|---4-4-4-4-4-4--3-3-3-3-3-3--2-2-2-2-2-2------------------------|
A|---2-2-2-2-2-2--1-1-1-1-1-1--0-0-0-0-0-0--5-5-5-5-5-5-----------|
D|------------------------------------------5-5-5-5-5-5-----------|

-Guitar 2-                                                          x a few
e|----------------------------------------------------------------|
B|----------------------------------------------------------------|
G|-----------------------------------------------------3333-------|
D|-------------0000---------0000---------0000----------3333-------|
A|-------------0000---------0000---------0000----------1111-------|
D|-------------0000---------0000---------0000---------------------|


-Guitars 1 & 2-
e|----------------------------|
B|----------------------------|
G|----------------------------|
D|---5-4-8-9-0---5-4-8-9-0----|
A|---5-4-8-9-0---5-4-8-9-0----|
D|---5-4-8-9-0---5-4-8-9-0----|



-Guitar 1-
e|-------------------------------------|---------------|
B|-------------------------------------|---------------|
G|-------------------------------------|(2nd time only)|
D|------4---------4--------------------|---5-5-5-5-5---|
A|----5---5-----5---5----5--7----5--4--|---5-5-5-5-5---|
D|--0--------0---------4-------4-------|---5-5-5-5-5---|

-Guitar 2-                                              x2
e|-------------------------------------|---------------|
B|-------------------------------------|---------------|
G|-------------------------------7--6--|(2nd time only)|
D|-----(rest until last 2 notes)-------|---5-5-5-5-5---|
A|-------------------------------------|---5-5-5-5-5---|
D|-------------------------------------|---5-5-5-5-5---|


Chorus
-Guitar 2- (not 100% positive on rhythm... just listen for it)
e|---------------------------------------------------------------------------|
B|---------------------------------------------------------------------------|
G|---------------------------------------------------------------------------|
D|--0-0-0---9-9--9--9---0-0-0---9-9--9--9---8--8-8---0--0-0-0-0--5-4-8-9-0---|
A|--0-0-0---9-9--9--9---0-0-0---9-9--9--9---8--8-8---0--0-0-0-0--5-4-8-9-0---|
D|--0-0-0---9-9--9--9---0-0-0---9-9--9--9---8--8-8---0--0-0-0-0--5-4-8-9-0---|

-Guitar 1-
e|------14----------------15--14-----------------------14-------------------|
B|----------14h15p14--------------14h15p14-----------------------15---------|
G|--14----------------14--------------------14---12-11-----12-11------------|
D|--------------------------------------------------------------------------|
A|-----------------------------------------------(repeat a bunch of times)--|
D|--------------------------------------------------------------------------|


-Guitar 2-
e|---------------------------------------------------------------------------|
B|---------------------------------------------------------------------------|
G|---------------------------------------------------------------------------|
D|---9-9-9-9-9-9-9-9--8-8-8-8-8-8-8-8--7-7-7-7-7-7-7-7--5-4-8-9-0--5-4-8-9-0-|
A|---9-9-9-9-9-9-9-9--8-8-8-8-8-8-8-8--7-7-7-7-7-7-7-7--5-4-8-9-0--5-4-8-9-0-|
D|---9-9-9-9-9-9-9-9--8-8-8-8-8-8-8-8--7-7-7-7-7-7-7-7--5-4-8-9-0--5-4-8-9-0-|

-Guitar 1-
e|---------------------------------------------------------------------------|
B|---------------------------------------------------------------------------|
G|--1111111111111111-1111111111111111--9-9-9-9-9-9-9-------------------------|
D|---x-x-x-x-x-x-x-x--x-x-x-x-x-x-x-x--x-x-x-x-x-x-x----5-4-8-9-0--5-4-8-9-0-|
A|---9-9-9-9-9-9-9-9--9-9-9-9-9-9-9-9--7-7-7-7-7-7-7----5-4-8-9-0--5-4-8-9-0-|
D|------------------------------------------------------5-4-8-9-0--5-4-8-9-0-|


| /  slide up
| \  slide down
| h  hammer-on
| p  pull-off
| ~  vibrato
| +  harmonic
| x  Mute note
===============================================================================
comments
print report bad tab
3 comments total.
0 reply
Les0Paul wrote on September 23 2007, 06:59 pm

I liked the tab, but have you heard the new version of Williamsburg, I hate the intro! Nice tab though.

0 reply
Rockin Baller wrote on July 21 2009, 08:11 pm

this is a god tab but for the intro try this
D|-----4---------4-----------------------|
A|---5--4-5----5--4-5----5-7--5----5-4---|
E|-0---------0---------4---------4-------|

enjoy:)

0 reply
izaelle wrote on April 24 2010, 12:23 am

D|-----4---------4-----------------------|
A|---5---4-----5---4-----5-7--5----5-4---|
E|-0---------0---------4---------4-------|

i believe this is actually most correct for that intro :)

I want to post or [tab]
guest
You may want to rate the tab now too:
select rating
Please do not post tabs as comments. Select "correction" instead!