Oops, an error
Loading. Please wait.

Williamsburg Tab

version 2
version 2

Whole song

Interactive

2,820 views 1 this week
2 commentsread comments
1 2 3 4 5
accurate
x 5
add to favorites
launch autoscroll
font size
0
reset
how to read this tab
guitar tuner
Tab Pro tools
  • play this tab
  • loop segment
  • change instrument
  • show fretboard
  • metronome
×
Best way to learn
"Williamsburg"
Autoscroll
slow
fast
+/-
esc
set tempo
stop
Contributor
Difficulty
Tuning
Tabbers playing skills
intermediate
D A D G B E
advanced +
-------------------------------------------------------------------------------
                             Williamsburg - Armor For Sleep
-------------------------------------------------------------------------------
Tabbed by: Cjb2293

Tuning: Drop D

Intro: 
Guitar 1:
e|--------------------------------------------------------------------------|x2
B|--------------------------------------------------------------------------|
G|--------------------------------------------------------------------------|
D|-0--0-0--9--9-9-9999--0--0-0--9--9-9-9999--8--8-8--0--0-0-0000--5-4-8-9-0-|
A|-0--0-0--9--9-9-9999--0--0-0--9--9-9-9999--8--8-8--0--0-0-0000--5-4-8-9-0-|
D|-0--0-0--9--9-9-9999--0--0-0--9--9-9-9999--8--8-8--0--0-0-0000--5-4-8-9-0-|

Guitar 2:(The effects here i think are Reverb and Chorus)
e|-----------------------------------------------------------------------| x2
B|-----------------------------------------------------------------------|
G|-----------------------------------------------------------------------|
D|------4~-4b5r4b5r4--------4~-4b5r4b5r4------7-----------7--------------|
A|----5--------------7----5--------------7------7-7-5-0-----7--7b8-------|
D|--0-------------------0-------------------0----------------------------|

Verse:
Guitar 1:
e|--------------------------------------| x2
B|--------------------------------------|
G|--------------------------------------|
D|--0-0-0----0-0-0----4-4-4----9-9-9----|
A|--0-0-0----0-0-0----4-4-4----9-9-9----|
D|--0-0-0----0-0-0----4-4-4----9-9-9----|

Guitar 2:
e|--------------------------------------|
B|--------------------------------------|
G|-111111---111111---1111-9----7-7-6----|
D|--x-x-x----x-x-x----x-x-x----x-x-x----|
A|--9-9-9----9-9-9----9-9-7----5-5-4----|
D|--------------------------------------|

Chorus:
Both Guitars:
e|--------------------------------------------------------------------------|x2
B|--------------------------------------------------------------------------|
G|--------------------------------------------------------------------------|
D|-0--0-0--9--9-9-9999--0--0-0--9--9-9-9999--8--8-8--0--0-0-0000--5-4-8-9-0-|
A|-0--0-0--9--9-9-9999--0--0-0--9--9-9-9999--8--8-8--0--0-0-0000--5-4-8-9-0-|
D|-0--0-0--9--9-9-9999--0--0-0--9--9-9-9999--8--8-8--0--0-0-0000--5-4-8-9-0-|

Verse:
Guitar 1:
e|--------------------------------------| x2
B|--------------------------------------|
G|--------------------------------------|
D|--0-0-0----0-0-0----4-4-4----9-9-9----|
A|--0-0-0----0-0-0----4-4-4----9-9-9----|
D|--0-0-0----0-0-0----4-4-4----9-9-9----|

Guitar 2:
e|--------------------------------------|
B|--------------------------------------|
G|-111111---111111---1111-9----7-7-6----|
D|--x-x-x----x-x-x----x-x-x----x-x-x----|
A|--9-9-9----9-9-9----9-9-7----5-5-4----|
D|--------------------------------------|

Chorus:
Both Guitars:
e|--------------------------------------------------------------------------|x2
B|--------------------------------------------------------------------------|
G|--------------------------------------------------------------------------|
D|-0--0-0--9--9-9-9999--0--0-0--9--9-9-9999--8--8-8--0--0-0-0000--5-4-8-9-0-|
A|-0--0-0--9--9-9-9999--0--0-0--9--9-9-9999--8--8-8--0--0-0-0000--5-4-8-9-0-|
D|-0--0-0--9--9-9-9999--0--0-0--9--9-9-9999--8--8-8--0--0-0-0000--5-4-8-9-0-|

Bridge:
Guitar 1:
e|----------------------------------------------------------------|x3
B|----------------------------------------------------------------|
G|-----------------------------------------------------3333-------|
D|-------------0000---------0000---------0000----------3333-------|
A|-------------0000---------0000---------0000----------1111-------|
D|-------------0000---------0000---------0000---------------------|

Guitar 2:
e|----------------------------------------------------------------|x3
B|----------------------------------------------------------------|
G|---4-4-4-4-4-4--3-3-3-3-3-3--2-2-2-2-2-2------------------------|
D|---4-4-4-4-4-4--3-3-3-3-3-3--2-2-2-2-2-2--5-5-5-5-5-5-----------|
A|---2-2-2-2-2-2--1-1-1-1-1-1--0-0-0-0-0-0--5-5-5-5-5-5-----------|
D|------------------------------------------5-5-5-5-5-5-----------|
 
Guitar 1:
e|----------------------------------------|
B|----------------------------------------|
G|----------------------------------------|
D|------------------------------55555555--|
A|------------------------------55555555--|
D|------------------------------55555555--|
                                                      
Guitar 2:
e|----------------------------------------|
B|----------------------------------------|
G|----------------------------------------|
D|------4---------4-------------55555555--|
A|----5---5-----5---5----5--7---55555555--|
D|--0--------0---------4--------55555555--|



Chorus:
Guitar 1:
e|--------------------------------------------------------------------------|x2
B|--------------------------------------------------------------------------|
G|--------------------------------------------------------------------------|
D|-0--0-0--9--9-9-9999--0--0-0--9--9-9-9999--8--8-8--0--0-0-0000--5-4-8-9-0-|
A|-0--0-0--9--9-9-9999--0--0-0--9--9-9-9999--8--8-8--0--0-0-0000--5-4-8-9-0-|
D|-0--0-0--9--9-9-9999--0--0-0--9--9-9-9999--8--8-8--0--0-0-0000--5-4-8-9-0-|


-Guitar 1-
e|------14----------------15--14-----------------------14-------------------|
B|----------14h15p14--------------14h15p14-----------------------15---------|
G|--14----------------14--------------------14---12-11-----12-11------------|
D|--------------------------------------------------------------------------|
A|--------------------------------------------------------------------------|
D|--------------------------------------------------------------------------|


Guitar 1:
e|---------------------------------------------------------------------------|
B|---------------------------------------------------------------------------|
G|---------------------------------------------------------------------------|
D|---9-9-9-9-9-9-9-9--8-8-8-8-8-8-8-8--7-7-7-7-7-7-7-7--5-4-8-9-0--5-4-8-9-0-|
A|---9-9-9-9-9-9-9-9--8-8-8-8-8-8-8-8--7-7-7-7-7-7-7-7--5-4-8-9-0--5-4-8-9-0-|
D|---9-9-9-9-9-9-9-9--8-8-8-8-8-8-8-8--7-7-7-7-7-7-7-7--5-4-8-9-0--5-4-8-9-0-|

Guitar 2:
e|---------------------------------------------------------------------------|
B|---------------------------------------------------------------------------|
G|--1111111111111111-1111111111111111--9-9-9-9-9-9-9-9-----------------------|
D|---x-x-x-x-x-x-x-x--x-x-x-x-x-x-x-x--x-x-x-x-x-x-x-x--5-4-8-9-0--5-4-8-9-0-|
A|---9-9-9-9-9-9-9-9--9-9-9-9-9-9-9-9--7-7-7-7-7-7-7-7--5-4-8-9-0--5-4-8-9-0-|
D|------------------------------------------------------5-4-8-9-0--5-4-8-9-0-|

| /  slide up
| \  slide down
| h  hammer-on
| p  pull-off
| ~  vibrato
| +  harmonic
| x  Mute note
===============================================================================
comments
print report bad tab
2 comments total.
0 reply
deluge_nl wrote on February 21 2008, 09:57 am

sounds ok, but you are missing some notes in the solo. It goes like 15 on the e, then back to 14 on the g, then 14 on the e and again 14 on the g. I;m too lazy to tab this here, and it always turns out wrong anyways so.. Try it ;)

0 reply
TaylorRandazzo1 wrote on November 24 2008, 10:23 pm

eh doesnt sound right

I want to post or [tab]
guest
You may want to rate the tab now too:
select rating
Please do not post tabs as comments. Select "correction" instead!