Oops, an error
Loading. Please wait.

If There Was Ever A Time tab

109 views 3 this week
no commentswrite comment
1 2 3 4 5
3 more votes to show rating
add to favorites
×
Save as Personal and add changes to this tab that will be seen only by you. Learn more ›
×
You can save this tab as Personal to edit and correct it or add notes. All changes will be seen only by you. Learn more »
launch autoscroll
font size
0
reset
how to read this tab
guitar tuner
edit
Autoscroll
slow
fast
+/-
esc
set tempo
stop
Artist: Armstrongs
Song: If There Was Ever A Time

[Intro]
[Acoustic Guitar]
e|-2-2-2-2-2-2-2-2-|-2-2-2-2-2-2-2-2-|-----------------|-2-2-2-2-2-2-2-2-|-2-2-2-2-2-2-2-2-|-3-3-3-3-3-3-3-3-|
B|-3-3-3-3-3-3-3-3-|-3-3-3-3-3-3-3-3-|-2-2-2-2-2-2-2-2-|-3-3-3-3-3-3-3-3-|-3-3-3-3-3-3-3-3-|-3-3-3-3-3-3-3-3-|
G|-2-2-2-2-2-2-2-2-|-2-2-2-2-2-2-2-2-|-2-2-2-2-2-2-2-2-|-2-2-2-2-2-2-2-2-|-2-2-2-2-2-2-2-2-|-0-0-0-0-0-0-0-0-|
D|-0-0-0-0-0-0-0-0-|-0-0-0-0-0-0-0-0-|-2-2-2-2-2-2-2-2-|-0-0-0-0-0-0-0-0-|-0-0-0-0-0-0-0-0-|-0-0-0-0-0-0-0-0-|
A|-----------------|-----------------|-0-0-0-0-0-0-0-0-|-----------------|-----------------|-2-2-2-2-2-2-2-2-|
E|-----------------|-----------------|-----------------|-----------------|-----------------|-3-3-3-3-3-3-3-3-|

e|-----------------|-2-2-2-2-2-2-2-2-|
B|-2-2-2-2-2-2-2-2-|-3-3-3-3-3-3-3-3-|
G|-2-2-2-2-2-2-2-2-|-2-2-2-2-2-2-2-2-|
D|-2-2-2-2-2-2-2-2-|-0-0-0-0-0-0-0-0-| 
A|-----------------|-----------------|
E|-----------------|-----------------|

[Electric Guitar]
  pm---------------------------------------------------------------------------------------------------------
e|-----------------|-----------------|-----------------|-----------------|-----------------|-----------------|
B|-----------------|-----------------|-----------------|-----------------|-----------------|-----------------|
G|-7-7-7-7-7-7-7-7-|-7-7-7-7-7-7-7-7-|-----------------|-7-7-7-7-7-7-7-7-|-7-7-7-7-7-7-7-7-|-----------------|
D|-7-7-7-7-7-7-7-7-|-7-7-7-7-7-7-7-7-|-7-7-7-7-7-7-7-7-|-7-7-7-7-7-7-7-7-|-7-7-7-7-7-7-7-7-|-5-5-5-5-5-5-5-5-|
A|-5-5-5-5-5-5-5-5-|-5-5-5-5-5-5-5-5-|-7-7-7-7-7-7-7-7-|-5-5-5-5-5-5-5-5-|-5-5-5-5-5-5-5-5-|-5-5-5-5-5-5-5-5-|
E|-----------------|-----------------|-5-5-5-5-5-5-5-5-|-----------------|-----------------|-3-3-3-3-3-3-3-3-|

  pm---------------------------------
e|-----------------|-----------------|
B|-----------------|-----------------|
G|-----------------|-7-7-7-7-7-7-7-7-|
D|-7-7-7-7-7-7-7-7-|-7-7-7-7-7-7-7-7-|
A|-7-7-7-7-7-7-7-7-|-5-5-5-5-5-5-5-5-|
E|-5-5-5-5-5-5-5-5-|-----------------|

[Chorus]
[Electric Guitar]
e|-----------------|-----------------|-----------------|-----------------|-----------------|-----------------|
B|-----------------|-----------------|-----------------|-----------------|-----------------|-----------------|
G|-7-7-7-7-7-7-7-7-|-7-7-7-7-7-7-7-7-|-----------------|-7-7-7-7-7-7-7-7-|-7-7-7-7-7-7-7-7-|-----------------|
D|-7-7-7-7-7-7-7-7-|-7-7-7-7-7-7-7-7-|-7-7-7-7-7-7-7-7-|-7-7-7-7-7-7-7-7-|-7-7-7-7-7-7-7-7-|-5-5-5-5-5-5-5-5-|
A|-5-5-5-5-5-5-5-5-|-5-5-5-5-5-5-5-5-|-7-7-7-7-7-7-7-7-|-5-5-5-5-5-5-5-5-|-5-5-5-5-5-5-5-5-|-5-5-5-5-5-5-5-5-|
E|-----------------|-----------------|-5-5-5-5-5-5-5-5-|-----------------|-----------------|-3-3-3-3-3-3-3-3-|

e|-----------------|-----------------|
B|-----------------|-----------------|
G|-----------------|-7-7-7-7-7-7-7-7-|
D|-7-7-7-7-7-7-7-7-|-7-7-7-7-7-7-7-7-|
A|-7-7-7-7-7-7-7-7-|-5-5-5-5-5-5-5-5-|
E|-5-5-5-5-5-5-5-5-|-----------------|

[Verse]
[Electric Guitar]
e|-----------------|-----------------|-----------------|-----------------|-----------------|-----------------|
B|-----------------|-----------------|-----------------|-----------------|-----------------|-----------------|
G|-7-7-7-7-7-7-7-7-|-7-7-7-7-7-7-7-7-|-----------------|-7-7-7-7-7-7-7-7-|-7-7-7-7-7-7-7-7-|-----------------|
D|-7-7-7-7-7-7-7-7-|-7-7-7-7-7-7-7-7-|-7-7-7-7-7-7-7-7-|-7-7-7-7-7-7-7-7-|-7-7-7-7-7-7-7-7-|-5-5-5-5-5-5-5-5-|
A|-5-5-5-5-5-5-5-5-|-5-5-5-5-5-5-5-5-|-7-7-7-7-7-7-7-7-|-5-5-5-5-5-5-5-5-|-5-5-5-5-5-5-5-5-|-5-5-5-5-5-5-5-5-|
E|-----------------|-----------------|-5-5-5-5-5-5-5-5-|-----------------|-----------------|-3-3-3-3-3-3-3-3-|

e|-----------------|-----------------|
B|-----------------|-----------------|
G|-----------------|-7-7-7-7-7-7-7-7-|
D|-7-7-7-7-7-7-7-7-|-7-7-7-7-7-7-7-7-|
A|-7-7-7-7-7-7-7-7-|-5-5-5-5-5-5-5-5-|
E|-5-5-5-5-5-5-5-5-|-----------------|

[Chorus]
[Electric Guitar]
  pm---------------------------------------------------------------------------------------------------------
e|-----------------|-----------------|-----------------|-----------------|-----------------|-----------------|
B|-----------------|-----------------|-----------------|-----------------|-----------------|-----------------|
G|-7-7-7-7-7-7-7-7-|-7-7-7-7-7-7-7-7-|-----------------|-7-7-7-7-7-7-7-7-|-7-7-7-7-7-7-7-7-|-----------------|
D|-7-7-7-7-7-7-7-7-|-7-7-7-7-7-7-7-7-|-7-7-7-7-7-7-7-7-|-7-7-7-7-7-7-7-7-|-7-7-7-7-7-7-7-7-|-5-5-5-5-5-5-5-5-|
A|-5-5-5-5-5-5-5-5-|-5-5-5-5-5-5-5-5-|-7-7-7-7-7-7-7-7-|-5-5-5-5-5-5-5-5-|-5-5-5-5-5-5-5-5-|-5-5-5-5-5-5-5-5-|
E|-----------------|-----------------|-5-5-5-5-5-5-5-5-|-----------------|-----------------|-3-3-3-3-3-3-3-3-|

  pm---------------------------------
e|-----------------|-----------------|
B|-----------------|-----------------|
G|-----------------|-7-7-7-7-7-7-7-7-|
D|-7-7-7-7-7-7-7-7-|-7-7-7-7-7-7-7-7-|
A|-7-7-7-7-7-7-7-7-|-5-5-5-5-5-5-5-5-|
E|-5-5-5-5-5-5-5-5-|-----------------|

[Solo]
[Electric Guitar]
e|-----------------|-----------------|-----------------|-----------------|-----------------|-----------------|
B|-----------------|-----------------|-----------------|-----------------|-----------------|-----------------|
G|-7-7-7-7-7-7-7-7-|-7-7-7-7-7-7-7-7-|-----------------|-7-7-7-7-7-7-7-7-|-7-7-7-7-7-7-7-7-|-----------------|
D|-7-7-7-7-7-7-7-7-|-7-7-7-7-7-7-7-7-|-7-7-7-7-7-7-7-7-|-7-7-7-7-7-7-7-7-|-7-7-7-7-7-7-7-7-|-5-5-5-5-5-5-5-5-|
A|-5-5-5-5-5-5-5-5-|-5-5-5-5-5-5-5-5-|-7-7-7-7-7-7-7-7-|-5-5-5-5-5-5-5-5-|-5-5-5-5-5-5-5-5-|-5-5-5-5-5-5-5-5-|
E|-----------------|-----------------|-5-5-5-5-5-5-5-5-|-----------------|-----------------|-3-3-3-3-3-3-3-3-|

e|-----------------|-----------------|
B|-----------------|-----------------|
G|-----------------|-7-7-7-7-7-7-7-7-|
D|-7-7-7-7-7-7-7-7-|-7-7-7-7-7-7-7-7-|
A|-7-7-7-7-7-7-7-7-|-5-5-5-5-5-5-5-5-|
E|-5-5-5-5-5-5-5-5-|-----------------|

[Verse]
[Electric Guitar]
e|-----------------|-----------------|-----------------|-----------------|-----------------|-----------------|
B|-----------------|-----------------|-----------------|-----------------|-----------------|-----------------|
G|-7-7-7-7-7-7-7-7-|-7-7-7-7-7-7-7-7-|-----------------|-7-7-7-7-7-7-7-7-|-7-7-7-7-7-7-7-7-|-----------------|
D|-7-7-7-7-7-7-7-7-|-7-7-7-7-7-7-7-7-|-7-7-7-7-7-7-7-7-|-7-7-7-7-7-7-7-7-|-7-7-7-7-7-7-7-7-|-5-5-5-5-5-5-5-5-|
A|-5-5-5-5-5-5-5-5-|-5-5-5-5-5-5-5-5-|-7-7-7-7-7-7-7-7-|-5-5-5-5-5-5-5-5-|-5-5-5-5-5-5-5-5-|-5-5-5-5-5-5-5-5-|
E|-----------------|-----------------|-5-5-5-5-5-5-5-5-|-----------------|-----------------|-3-3-3-3-3-3-3-3-|

e|-----------------|-----------------|
B|-----------------|-----------------|
G|-----------------|-7-7-7-7-7-7-7-7-|
D|-7-7-7-7-7-7-7-7-|-7-7-7-7-7-7-7-7-|
A|-7-7-7-7-7-7-7-7-|-5-5-5-5-5-5-5-5-|
E|-5-5-5-5-5-5-5-5-|-----------------|

[Chorus]
[Electric Guitar]
  pm---------------------------------------------------------------------------------------------------------
e|-----------------|-----------------|-----------------|-----------------|-----------------|-----------------|
B|-----------------|-----------------|-----------------|-----------------|-----------------|-----------------|
G|-7-7-7-7-7-7-7-7-|-7-7-7-7-7-7-7-7-|-----------------|-7-7-7-7-7-7-7-7-|-7-7-7-7-7-7-7-7-|-----------------|
D|-7-7-7-7-7-7-7-7-|-7-7-7-7-7-7-7-7-|-7-7-7-7-7-7-7-7-|-7-7-7-7-7-7-7-7-|-7-7-7-7-7-7-7-7-|-5-5-5-5-5-5-5-5-|
A|-5-5-5-5-5-5-5-5-|-5-5-5-5-5-5-5-5-|-7-7-7-7-7-7-7-7-|-5-5-5-5-5-5-5-5-|-5-5-5-5-5-5-5-5-|-5-5-5-5-5-5-5-5-|
E|-----------------|-----------------|-5-5-5-5-5-5-5-5-|-----------------|-----------------|-3-3-3-3-3-3-3-3-|

  pm---------------------------------
e|-----------------|-----------------|
B|-----------------|-----------------|
G|-----------------|-7-7-7-7-7-7-7-7-|
D|-7-7-7-7-7-7-7-7-|-7-7-7-7-7-7-7-7-|
A|-7-7-7-7-7-7-7-7-|-5-5-5-5-5-5-5-5-|
E|-5-5-5-5-5-5-5-5-|-----------------|

[Bridge]
[Electric Guitar]
e|-----------------|-----------------|-----------------|-----------------|
B|-----------------|-----------------|-----------------|-----------------|
G|-----------------|---------------5-|-7-7-7-7-7-7-7-7-|-7-7-7-7-7-7-7-5-|
D|-5-5-5-5-5-5-5-5-|-5-5-5-5-5-5-5-5-|-7-7-7-7-7-7-7-7-|-7-7-7-7-7-7-7-5-| (x3)
A|-5-5-5-5-5-5-5-5-|-5-5-5-5-5-5-5-3-|-5-5-5-5-5-5-5-5-|-5-5-5-5-5-5-5-3-|
E|-3-3-3-3-3-3-3-3-|-3-3-3-3-3-3-3---|-----------------|-----------------|

e|-----------------|
B|-----------------|
G|-------------5---|
D|-7---7-7-7---5---| (x2)
A|-7---7-7-7---3---|
E|-5---5-5-5-------|

e|-----------------|
B|-----------------|
G|---5---5---5-----|
D|-7-5-7-5-7-5-7---|
A|-7-3-7-3-7-3-7---|
E|-5---5---5---5---|

[Instrumental]
[Acoustic Guitar]
e|-2-2-2-2-2-2-2-2-|-2-2-2-2-2-2-2-2-|-----------------|-2-2-2-2-2-2-2-2-|-2-2-2-2-2-2-2-2-|-3-3-3-3-3-3-3-3-|
B|-3-3-3-3-3-3-3-3-|-3-3-3-3-3-3-3-3-|-2-2-2-2-2-2-2-2-|-3-3-3-3-3-3-3-3-|-3-3-3-3-3-3-3-3-|-3-3-3-3-3-3-3-3-|
G|-2-2-2-2-2-2-2-2-|-2-2-2-2-2-2-2-2-|-2-2-2-2-2-2-2-2-|-2-2-2-2-2-2-2-2-|-2-2-2-2-2-2-2-2-|-0-0-0-0-0-0-0-0-|
D|-0-0-0-0-0-0-0-0-|-0-0-0-0-0-0-0-0-|-2-2-2-2-2-2-2-2-|-0-0-0-0-0-0-0-0-|-0-0-0-0-0-0-0-0-|-0-0-0-0-0-0-0-0-|
A|-----------------|-----------------|-0-0-0-0-0-0-0-0-|-----------------|-----------------|-2-2-2-2-2-2-2-2-|
E|-----------------|-----------------|-----------------|-----------------|-----------------|-3-3-3-3-3-3-3-3-|

e|-----------------|-2-2-2-2-2-2-2-2-|
B|-2-2-2-2-2-2-2-2-|-3-3-3-3-3-3-3-3-|
G|-2-2-2-2-2-2-2-2-|-2-2-2-2-2-2-2-2-|
D|-2-2-2-2-2-2-2-2-|-0-0-0-0-0-0-0-0-| 
A|-0-0-0-0-0-0-0-0-|-----------------|
E|-----------------|-----------------|

[Chorus]
[Electric Guitar]
e|-----------------|-----------------|-----------------|-----------------|-----------------|-----------------|
B|-----------------|-----------------|-----------------|-----------------|-----------------|-----------------|
G|-7-7-7-7-7-7-7-7-|-7-7-7-7-7-7-7-7-|-----------------|-7-7-7-7-7-7-7-7-|-7-7-7-7-7-7-7-7-|-----------------|
D|-7-7-7-7-7-7-7-7-|-7-7-7-7-7-7-7-7-|-7-7-7-7-7-7-7-7-|-7-7-7-7-7-7-7-7-|-7-7-7-7-7-7-7-7-|-5-5-5-5-5-5-5-5-|
A|-5-5-5-5-5-5-5-5-|-5-5-5-5-5-5-5-5-|-7-7-7-7-7-7-7-7-|-5-5-5-5-5-5-5-5-|-5-5-5-5-5-5-5-5-|-5-5-5-5-5-5-5-5-|
E|-----------------|-----------------|-5-5-5-5-5-5-5-5-|-----------------|-----------------|-3-3-3-3-3-3-3-3-|

e|-----------------|-----------------|
B|-----------------|-----------------|
G|-----------------|-7-7-7-7-7-7-7-7-|
D|-7-7-7-7-7-7-7-7-|-7-7-7-7-7-7-7-7-|
A|-7-7-7-7-7-7-7-7-|-5-5-5-5-5-5-5-5-|
E|-5-5-5-5-5-5-5-5-|-----------------|

[Solo]
[Electric Guitar]
e|-----------------|-----------------|-----------------|-----------------|-----------------|-----------------|
B|-----------------|-----------------|-----------------|-----------------|-----------------|-----------------|
G|-7-7-7-7-7-7-7-7-|-7-7-7-7-7-7-7-7-|-----------------|-7-7-7-7-7-7-7-7-|-7-7-7-7-7-7-7-7-|-----------------|
D|-7-7-7-7-7-7-7-7-|-7-7-7-7-7-7-7-7-|-7-7-7-7-7-7-7-7-|-7-7-7-7-7-7-7-7-|-7-7-7-7-7-7-7-7-|-5-5-5-5-5-5-5-5-|
A|-5-5-5-5-5-5-5-5-|-5-5-5-5-5-5-5-5-|-7-7-7-7-7-7-7-7-|-5-5-5-5-5-5-5-5-|-5-5-5-5-5-5-5-5-|-5-5-5-5-5-5-5-5-|
E|-----------------|-----------------|-5-5-5-5-5-5-5-5-|-----------------|-----------------|-3-3-3-3-3-3-3-3-|

e|-----------------|-----------------|
B|-----------------|-----------------|
G|-----------------|-7-7-7-7-7-7-7-7-|
D|-7-7-7-7-7-7-7-7-|-7-7-7-7-7-7-7-7-|
A|-7-7-7-7-7-7-7-7-|-5-5-5-5-5-5-5-5-|
E|-5-5-5-5-5-5-5-5-|-----------------|

[Outro]
[Electric Guitar]
e|-----------------|-----------------|-----------------|-----------------|
B|-----------------|-----------------|-----------------|-----------------|
G|-----------------|-7-7-7-7-7-7-7-7-|-----------------|-7---------------|
D|-7-7-7-7-7-7-7-7-|-7-7-7-7-7-7-7-7-|-7-7-7-7-7-7-7-7-|-7-Let Ring------|
A|-7-7-7-7-7-7-7-7-|-5-5-5-5-5-5-5-5-|-7-7-7-7-7-7-7-7-|-5---------------|
E|-5-5-5-5-5-5-5-5-|-----------------|-5-5-5-5-5-5-5-5-|-----------------|

            
            
Suggest correction
Creating personal tab
Creating personal tab
You can edit any tab online and save it as your Personal.

You can edit, replace or remove any tab part or add personal notes – all changes will be seen only by you.

Personal tabs can be accessed anytime from any device, even offline.
Learn more »
Give kudos to tab author, rate the tab!
1 2 3 4 5
comments
print report bad tab
guest
You may want to rate the tab now too:
select rating
Wanna post a correction for this tab? Suggest correction