Oops, an error
Loading. Please wait.

A Better Place Tab

version 1
version 1

Whole song

243 views 1 this week
no commentswrite comment
1 2 3 4 5
please rate
add to favorites
launch autoscroll
font size
0
reset
how to read this tab
guitar tuner
Tab Pro tools
  • play this tab
  • loop segment
  • change instrument
  • show fretboard
  • metronome
Autoscroll
slow
fast
+/-
esc
set tempo
stop
Contributor
-----------------------------------------------------------------------------#
#-- File created with Instab - http://www.pconline.com/~smcarey/instab.html --#
#-----------------------------------------------------------------------------#

Author/Artist: Army Of Anyone
Title: A Better Place

b bend
r release bend
/ slide up
\ slide down
h hammer on
p pull off
A arpeggio
P Pick

Palm mute all.

Tuning (eb A D G B E), (eb, D) Down ~ 10%
Acoustic Drop C# Tuning
Live Tuning (D A E A E E)
Key: (E + D)


----|------------------------------|--|
----|------------------------------|--|
----|-5---5--5-5-5-5--5-5-5--5-5-5-|--|
----|-5h7-7--7-7-7-5--7-7-5--7-7-7-|2x|
----|-7---7--7-7-7-7--7-7-7--7-7-7-|--|
----|------------------------------|--|
  

  G1 Intro 


----|------------------------------|--|
----|-0----------------------------|--|
----|-5----------------------------|--|
----|-7----------------------------|2x|
----|-0----------------------------|--|
----|------------------------------|--|
  

  G2 Intro  A



----|-------------------|
----|-------------------|
----|-5---5---5---7--7--|
----|-7---5---7---7--6--|
----|-------------------|
----|-------------------|
  

  Verse Pick



----|------------|--|---------------------------------|
----|------------|--|----------------------8--7--5--7-|
----|-6-----5----|--|--7--------7----------7--7--7--7-|
----|-7--7--7--7-|--|--5--------7---------------------|
----|-7--7--8--8-|--|---------------------------------|
----|------------|--|---------------------------------|
      A  P  A  P       A        A                    

  G1 Pre Chorus



----|--------------------------------------------------------------------------|
----|--------------------------------------------------------------------------|
----|---9---9---9---9---5---5---5---5---5---5---7---7---7---7------------------|
----|-9---9---9---9---5---5---5---5---5---5---7---7---7---7-----7---7---7---7--|
----|---------------------------------------------------------7---7---7---7----|
----|--------------------------------------------------------------------------|
  

  G1 Chorus



----|-----------|--|
----|-------0---|--|
----|---5-------|--|
----|-7---7-----|3x|
----|-----------|--|
----|-----------|--|
 

  G2 2nd Verse




----|---------------------------------------------------------------------|
----|---------------------------------------------------------------------|
----|-------12----12-14-14v--14v--14-12-\-9v--7p5-7b9--7br-5--------------|
----|-12/14----14--------------------------------------------7vv-5/7-10p7-|
----|---------------------------------------------------------------------|
----|---------------------------------------------------------------------|
 

  Solo Live Version



------------------------------------------------------------------------------|
------------------------------------------------------------------------------|
----------------------------5-7-9-7/9br-9-7/9br\7b8/9vv-------12-14-14/17-14/-|
-10b11-10br-7--12br-10-7--7-----------------------------12/14-----------------|
------------------------------------------------------------------------------|
------------------------------------------------------------------------------|



------------------------------------------------------------------------------|
---------10--10/13------------------------------------------------------------|
-16br-14------------14-17--/--17-14-17-19b-r-14vv--19b-r-19p17-17b-17h19-17/--|
------------------------------------------------------------------------------|
------------------------------------------------------------------------------|
------------------------------------------------------------------------------|
                             m



--------17p15--15/17-15----15/17-15-----------------|
-----17-----------------17----------17--17----------|
-19-------------------------------------19b20-r-b---|
----------------------------------------------------|
----------------------------------------------------|
----------------------------------------------------|
   m                                                




----|---------------------------------------------------------------------------|
----|-3/12vvv-13vv-13/15\13-12vv-12/14\12-10vv-10/12\10-9vv-15/17\15-15vv-15/17-|
----|---------------------------------------------------------------------------|
----|---------------------------------------------------------------------------|
----|---------------------------------------------------------------------------|
----|---------------------------------------------------------------------------|
   
  
  Chorus



-------------------------15/17-17-17-16b-|
-\15-14vv-15/17-17-19bvv-----------------|
-----------------------------------------|
-----------------------------------------|
-----------------------------------------|
-----------------------------------------|
                                        
comments
We did not receive enough feedback on this tab! Please rate:
print report bad tab
1 2 3 4 5
I want to post or [tab]
guest
You may want to rate the tab now too:
select rating
Please do not post tabs as comments. Select "correction" instead!