Oops, an error
Loading. Please wait.

A Better Place tab

version 2
version 2

Whole song

197 views 1 this week
no commentswrite comment
1 2 3 4 5
1 last vote to show rating
add to favorites
×
Save as Personal and add changes to this tab that will be seen only by you. Learn more ›
×
You can save this tab as Personal to edit and correct it or add notes. All changes will be seen only by you. Learn more »
launch autoscroll
font size
0
reset
how to read this tab
guitar tuner
edit
Autoscroll
slow
fast
+/-
esc
set tempo
stop
----------------------------------------------------------------------
                             A BETTER PLACE - Army Of Anyone
----------------------------------------------------------------------


Tabbed by: KnuckleChildren
E-mail: danreid1977@optusnet.com.au


Tuning: Standard (EADGBe)


Another great song from the DeLeo stable. Especially awesome to play acoustically. 

I've tabbed the four different rhythm sections of the song: 
Intro, Verse, Pre-chorus and Chorus.
Listen to the song to find out where and when each part fits, it's a pretty straightforward song. 




INTRO: (x2)

e|------------------------------------|
B|------------0---0-------------------|
G|---5----5---5---5--5---5--5--5------|
D|---5h7--7---7---7--5---7--5--7--7---|
A|---0----0---0---0--0---0--0--0--0---|
E|------------------------------------|




VERSE/SOLO RHYTHM: (repeat)

e|------------0---0----------------------------0---0--0--0---0--0--0--|
B|------------0---0----------------------------1---1--1--1---1--1--1--|
G|---5----5---5---5--5---5--5-------------0----0---0--0--0---0--0--0--|
D|---5h7--7---7---7--5---7--5---4---------4----4---4--4--4---4--4--4--|
A|---0----0---0---0--0---0--0-------5\3---3----3---3--3--3---3--3--3--|
E|--------------------------------------------------------------------|

e|---1---1---1--1--1---1--1--1---1---1--1--1---0---0--0---0---0--0---|
B|---1---1---1--1--1---1--1--1---3---3--3--3---0---0--0---0---0--0---|
G|---2---2---2--2--2---2--2--2---2---2--2--2---1---1--1---2---1--1---|
D|---3---3---3--3--3---3--3--3---3---3--3--3---2---2--2---2---2--2---|
A|---3---3---3--3--3---3--3--3---1---1--1--1---2---2--2---2---2--2---|
E|---1---1---1--1--1---1--1--1-----------------0---0--0---0---0--0---|




PRE-CHORUS

e|-------------0---0--0--0--0---0--0--0-------------0---0--0--0--0--|
B|---5--5--5---5---5--5--5--5---5--5--5---1--1--1---1---1--1--1--1--|
G|---6--6--6---6---6--6--6--6---6--6--6---2--2--2---2---2--2--2--2--|
D|---7--7--7---7---7--7--7--7---7--7--7---3--3--3---3---3--3--3--3--|
A|---0--0--0---0---0--0--0--0---0--0--0---0--0--0---0---0--0--0--0--|
E|------------------------------------------------------------------|


e|---0--0--0--|------------0---0--0--0--0---0--0--0-------------0---0--|
B|---1--1--1--|--7--7--7---5---5--5--5--5---5--5--5---1--1--1---1---1--|
G|---2--2--2--|--6--6--6---6---6--6--6--6---6--6--6---2--2--2---2---2--|
D|---3--3--3--|--5--5--5---7---7--7--7--7---7--7--7---3--3--3---3---3--|
A|---0--0--0--|--0--0--0---0---0--0--0--0---0--0--0---0--0--0---0---0--|
E|------------|--------------------------------------------------------|

e|---3--3--3---3--3--3--|------------0---0--0--0--0---0--0--0---------|
B|---1--1--1---1--1--1--|--5--5--5---5---5--5--5--5---5--5--5---1--1--|
G|---2--2--2---2--2--2--|--6--6--6---6---6--6--6--6---6--6--6---2--2--|
D|---3--3--3---3--3--3--|--7--7--7---7---7--7--7--7---7--7--7---3--3--|
A|---0--0--0---0--0--0--|--0--0--0---0---0--0--0--0---0--0--0---0--0--|
E|----------------------|---------------------------------------------|

e|---0---0---0--0--0--0---0--0--0--|---3----3----3--3--3---3--3--3--|
B|---1---1---1--1--1--1---1--1--1--|---3----3----3--3--3---3--3--3--|
G|---2---2---2--2--2--2---2--2--2--|---0----0----0--0--0---0--0--0--|
D|---3---3---3--3--3--3---3--3--3--|---0----0----0--0--0---0--0--0--|
A|---0---0---0--0--0--0---0--0--0--|---2----2----2--2--2---2--2--2--|
E|---------------------------------|---3----3----3--3--3---3--3--3--|

e|---2----2--2---3---2---0---2---|
B|---3----3--3---3---3---3---3---|
G|---2----2--2---2---2---2---2---|
D|---0----0--0---0---0---0---0---|
A|-------------------------------|
E|-------------------------------|




CHORUS: Play this section x3

e|------------------------------0--0--0-----------------------------|
B|------------------------------0--0--0-------------------5---5--5--|
G|---7/9---9---9--9--9---9--9---9--9--9---5/7---7---7--7--6---6--6--|
D|---7/9---9---9--9--9---9--9---9--9--9---5/7---7---7--7--7---7--7--|
A|---5/7---7---7--7--7---7--7---7--7--7---3/5---5---5--5--0---0--0--|
E|-------------------8---8--8---8--8--8-----------------------------|

e|-------------|
B|---7--5--5---|
G|---6--6--6---|
D|---7--7--7---|
A|---0--0--0---|
E|-------------|

...then play this section x1 

e|------------------------------0--0--0-----------------------0---|
B|------------------------------0--0--0-----------------------5---|
G|---7/9---9---9--9--9---9--9---9--9--9---5/7---7---7--7--7---6---|
D|---7/9---9---9--9--9---9--9---9--9--9---5/7---7---7--7--7---7---|
A|---5/7---7---7--7--7---7--7---7--7--7---3/5---5---5--5--5---0---|
E|-------------------8---8--8---8--8--8---------------------------|





That's it. Feel free to comment or e-mail. As always, I'm open to suggestions, 
insults, praise, etc. 

Enjoy!  \m/(^_^)\m/




************************************

| /   slide up
| \   slide down
| h   hammer-on
| p   pull-off
| ~   vibrato
| +   harmonic
| x   Mute note
| b   Bend
| pb  Pre-bend
| br  Bend release
| pbr Pre-bend release
| brb Bend release bend

************************************

            
            
Suggest correction
Creating personal tab
Creating personal tab
You can edit any tab online and save it as your Personal.

You can edit, replace or remove any tab part or add personal notes – all changes will be seen only by you.

Personal tabs can be accessed anytime from any device, even offline.
Learn more »
Give kudos to tab author, rate the tab!
1 2 3 4 5
comments
print report bad tab
guest
You may want to rate the tab now too:
select rating
Wanna post a correction for this tab? Suggest correction