Oops, an error
Loading. Please wait.

Disappear Tab

version 1
version 1

Whole song

1,092 views 3 this week
1 commentread comment
1 2 3 4 5
excellent!
x 1
add to favorites
launch autoscroll
font size
0
reset
how to read this tab
guitar tuner
Tab Pro tools
  • play this tab
  • loop segment
  • change instrument
  • show fretboard
  • metronome
Autoscroll
slow
fast
+/-
esc
set tempo
stop
Contributor
#----------------------------------PLEASE NOTE--------------------------------#
#This file is the author's own work and represents their interpretation of the#
#song. You may only use this file for private study, scholarship, or research.#
#-----------------------------------------------------------------------------#
#-- File created with Instab - http://www.pconline.com/~smcarey/instab.html --#
#-----------------------------------------------------------------------------#

Author/Artist: Army Of Anyone
Title: Disappear Live Version

h hammer on
p pull off
/ slide up
\ slide down
b bend
r release bend

G1,G2,G3 Tuning (d A E A a c#)
G4 Tuning (eb A D G B E)




----|-5h6--6-6--6-5-------------5-5-5h6--6-6--6-5--------------|
----|-5----5-5--5-5-------------5-5-5----5-5--5-5--------------|
----|----------------------------------------------------------|
----|----------------------------------------------------------|
----|----------------------------------------------------------|
----|----------------------------------------------------------|
   

  G1 Intro



----|---------|
----|---------|
----|-5-------|
----|-5-------|
----|-5-------|
----|---------|
   

  G2 Intro 


----|----------------------------------------------------------|
----|----------------------------------------------------------|
----|----------------------------------------------------------|
----|----------------------------------------------------------|
----|-3h5----5--3/5----5-5-5-5-5----3h5--5-5--5-5---5-5-5-5-5--|
----|----------------------------------------------------------|
   

  G3 Intro




----|-6--6--5---------6--6--5-----------6--6--5-----------6--6--5------------|
----|---------7p5-7p5----------7p5-7p5-----------5p3-5p3-----------7p5-7p5---|
----|------------------------------------------------------------------------|
----|------------------------------------------------------------------------|
----|------------------------------------------------------------------------|
----|------------------------------------------------------------------------|
   

  Verse                           C





----|-6--6--5-----------6--6--5-----------|
----|----------7p5-7p5-----------7p5-7p5--|
----|-------------------------------------|
----|-------------------------------------|
----|-------------------------------------|
----|-------------------------------------|
   

  Verse Out



----|---------------------------------------6--6--5-----------6--6--5-----------|
----|----5p4-4----5p4-4-4-4------5--7p5-7p5----------7p5-7p5-----------7p5-7p5--|
----|-----------------------3--3------------------------------------------------|
----|-0--------0------------3---------------------------------------------------|
----|-0--------0----------------------------------------------------------------|
----|---------------------------------------------------------------------------|
   

  PreChorus Riff "I watch how the world.."




----|-8----------11---------10-----------9-----------|--|
----|----9----------------------10-------------------|--|
----|----------------9----------------------10-------|--|
----|-------10----------8-----------10----------9----|--|
----|------------------------------------------------|--|
----|------------------------------------------------|--|
  

  Chorus 




----|-8-----------11----------|
----|----9--------------------|
----|-----------------9-------|
----|-------10-----------8----|
----|-------------------------|
----|-------------------------|
  

  Chorus end



----|-----------------------------------------------------------------------|
----|-----------------------------------------------------------------------|
----|-15b16r15---16b-14-16b-14-15b17-vvv--17-16-14--------------------------|
----|----------------------------------------------17-----------------------|
----|--------------------------------------------------17-15-14b15----------|
----|---------------------------------------------------------------15-14---|
     

  G4 Solo (Live Version)



------------------------------------------------------------------------------|
------------------------------------------------------------------------------|
-------------------------------------------------------------------9----9-11--|
--------------------------0-2p0---0-2-5-4--5-7p5-4-5-7-10-9---7/10---10-------|
-----0-2-2vv-2p0---2/5-vv-------4---------------------------------------------|
-8vv-------------4------------------------------------------------------------|




------------------------------------------------------------------------------|
-------------------------------------------------3---------------3------------|
-11-11--12-12p11-9-11-9-7-5--7-5-4-5-4-2-0-4b5r4---4b5r4-2-2p0----------7-----|
---------------------------------------------------------------5----3/5---5h7-|
------------------------------------------------------------------------------|
------------------------------------------------------------------------------|




------------------------------------------------------------------------|
--------------------------------------------------17/19-17--------------|
---9-----11---------13-------15----------17-----------------19-19-------|
-7---7/9----9h11-11----11/13----13h15-15----15/17-----------------------|
------------------------------------------------------------------------|
------------------------------------------------------------------------|




----|-8------------11-------------------10----------------------11---------|
----|----9-----------------------------------------------------------12----|
----|------------------9--------10-----------7-----10---10-----------9-----|
----|-------10------------8---------10----------8-----------10-------------|
----|----------------------------------------------------------------5-----|
----|----------------------------------------------------------------------|
  

  Outro                                                                5>G2
comments
We did not receive enough feedback on this tab! Please rate:
print report bad tab
1 2 3 4 5
1 comment total.
0 reply
Saverain wrote on November 21 2006, 03:01 pm

Corrections
http://www.geocities.com/tabevolution/disappear.html

I want to post or [tab]
guest
You may want to rate the tab now too:
select rating
Please do not post tabs as comments. Select "correction" instead!