Oops, an error
Loading. Please wait.

Generation bass

19 views 1 this week
no commentswrite comment
1 2 3 4 5
2 more votes to show rating
add to favorites
×
Save as Personal and add changes to this tab that will be seen only by you. Learn more ›
×
You can save this tab as Personal to edit and correct it or add notes. All changes will be seen only by you. Learn more »
launch autoscroll
font size
0
reset
guitar tuner
edit
Autoscroll
slow
fast
+/-
esc
set tempo
stop
Author
Difficulty
Song: 'Generation' by Army of Anyone
Tuning: Standard bass
Tabbed by: jjhand


Verse Riff

    play 3x                              4th bar lick
G|-------------------------------|    ------------------7-------------------|
D|---------------------------5---|    ----------------9---9---7---5~--------|
A|-5h7-7---7-7---7-7---7---5---5-|    --5h7-7---7-7---------7---7-----------|
E|-------------------------------|    --------------------------------------|

    play 3x                              8th bar
G|-------------------------------|    ---------------------------------|
D|---------------------------5---|    ---------------------------------|
A|-5h7-7---7-7---7-7---7---5---5-|    --5h7-7---7-7---7-7---7-7-5-5-5--|
E|-------------------------------|    ---------------------------------|


Prechorus - play each note as sixteenths, repeated notes are marked below
G|--------------|---------------|----------------|---------------------------|
D|--------------|---------------|----------------|/7-----------7--5-----5----|
A|-3------------|-3-------------|--------------7-|-----------7-------7----5--|
E|--------------|---------------|-5--------------|---------------------------|
   16x            16x             15x              7x          

G|--------------|---------------|----------------|-----------------|
D|--------------|---------------|----------------|-----------------|
A|-3------------|-3-------------|-7----5---------|-----------------|
E|--------------|---------------|----------------|-----------------|
   16x            16x                      


Chorus -
   played 4x similarly
G|-----------------------------------|
D|-----------------------------------|
A|----------5---7---5---7------------|
E|-0--5--7----------------5b6r--3--0-|


Verse 2 - same as first verse but bar 4 is a different lick:

G|--------------------------------|
D|-------------------------5-5----|
A|-5h7-7---7-7-----------7-----5--|
E|---------------0-3-5-7----------|


Play Prechorus & Chorus the same as before except Chorus 2 is twice as long


Guitar Solo Section - Play Prechorus riff again


Ending - Play Chorus 2 again


************************************
KEY

| /   slide up
| \   slide down
| h   hammer-on
| p   pull-off
| ~   vibrato
| +   harmonic
| x   Mute note
| b   Bend
| pb  Pre-bend
| br  Bend release
| pbr Pre-bend release
| brb Bend release bend

************************************************************************

            
            
Suggest correction
Creating personal tab
Creating personal tab
You can edit any tab online and save it as your Personal.

You can edit, replace or remove any tab part or add personal notes – all changes will be seen only by you.

Personal tabs can be accessed anytime from any device, even offline.
Learn more »
Give kudos to tab author, rate the tab!
1 2 3 4 5
comments
print report bad tab
guest
You may want to rate the tab now too:
select rating
Wanna post a correction for this tab? Suggest correction