Oops, an error
Loading. Please wait.

Stop Look And Listen Tab

1,314 views 1 this week
no commentswrite comment
1 2 3 4 5
please rate
add to favorites
launch autoscroll
font size
0
reset
how to read this tab
guitar tuner
Autoscroll
slow
fast
+/-
esc
set tempo
stop
Help us to improve Ultimate-Guitar.com Take our survey!
×
Contributor
Difficulty
Saverain 3,612
novice
#----------------------------------PLEASE NOTE--------------------------------#
#This file is the author's own work and represents their interpretation of the#
#song. You may only use this file for private study, scholarship, or research.#
#-----------------------------------------------------------------------------#
#-- File created with Instab - http://www.pconline.com/~smcarey/instab.html --#
#-----------------------------------------------------------------------------#

Author/Artist: Army Of Anyone
Title: Stop Look and Listen Live Version

b bend
r release
/ slide up
\ slide down
h hammer on
p pull off


Standard Tuning




----|----------------|
----|----------------|
----|-9/11--11/16vv\-|
----|----------------|
----|----------------|
----|----------------|
  

  G1 Intro/Chorus



----|---------------------------------------------------------|--|
----|---------------------------------------------------------|--|
----|-8--8-8-8--8-8-6--6-6-6--6-6-4--4-4-4--4-4-4--4-4-4--4-4-|--|
----|-9--9-9-9--9-9-7--7-7-7--7-7-6--6-6-6--6-6-5--5-5-5--5-5-|--|
----|-9--9-9-9--9-9-7--7-7-7--7-7-7--7-7-7--7-7-5--5-5-5--5-5-|--|
----|---------------------------------------------------------|--|
  

  G2 Intro/Chorus  







----|-----------------------------------------|
----|------------------12\7-------------------|
----|-11--------------------------------------|
----|-----------------------------------------|
----|-----------------------------------------|
----|-----------------------------------------|
  

  G1 Verse




----|----------|
----|----------|
----|-x-x------|
----|-x-x------|
----|----------|
----|----------|
  

  G2 Verse     



----|-----------------------------------------|
----|-7----7----7----7----7----7----7----7----|
----|-6----6----6----6----6----6----6----6----|
----|-9----9----9----9----9----9----9----9----|
----|-----------------------------------------|
----|-----------------------------------------|
  

  G3 Verse







----|------------------------------------------------|
----|------------------------------------------------|
----|-7---7--7-7-6---6--6-6-7---7--7-7-4---4--4-4----|
----|-7---7--7-7-7---7--7-7-7---7--7-7-6---6--6-6----|
----|-9---9--9-9-7---7--7-7-5---5--5-5-7---7--7-7----|
----|------------------------------------------------|
  

  G2    



----|-------------------------------------|--|
----|-7-------10-------7-------10---------|--|
----|---7--------9-------7--------9-------|--|
----|-----7--------7-------7--------7--6--|2x|
----|-------------------------------------|--|
----|-------------------------------------|--|
  

  G3






----|--------------------------------------------------------|
----|--------------------------------------------------------|
----|-12/14-14------------14/16br\14------------14/16br------|
----|--------------------------------------------------------|
----|--------------------------------------------------------|
----|--------------------------------------------------------|
  

  G1  Interlude



----|---------------------------------------------------------|
----|---------------------------------------------------------|
----|-7--7-7-7--7-7-7--7-7-7--7-7-6--6-6-6--6-6-6--6-6-6--6-6-|
----|-7--7-7-7--7-7-7--7-7-7--7-7-7--7-7-7--7-7-7--7-7-7--7-7-|
----|-9--9-9-9--9-9-9--9-9-9--9-9-7--7-7-7--7-7-7--7-7-7--7-7-|
----|---------------------------------------------------------|
  

  G2  Interlude




----|------------------------------------------|
----|------------------------------------------|
----|-----7---7-----7---7-----9---9-----9---9--|
----|-5/7-------5/7-------7/9-------7/9--------|
----|-------9---------9---------9---------9----|
----|------------------------------------------|
  

  G3  Interlude




----|--------------------------------------------------------|
----|---7------12-12-12-12-12------7-7-7-7-12-12-12----------|
----|--------------------------------------------------------|
----|--------------------------------------------------------|
----|--------------------------------------------------------|
----|--------------------------------------------------------|
  

  G4  Interlude 








----|-------------------------------------|
----|-12----------10---------12-----------|
----|-11----------11---------11-----------|
----|-------------------------------------|
----|-------------------------------------|
----|-------------------------------------|
  

  G1 Interlude Out




----|--------------------------------------------------------|
----|--------------------------------------------------------|
----|-7--7-7-7--7-7-7--7-7-7--7-7-4--4--4-4-4-4-4--4-4-4-4---|
----|-7--7-7-7--7-7-7--7-7-7--7-7-6--6--6-6-6-6-6--6-6-6-6---|
----|-9--9-9-9--9-9-5--5-5-5--5-5-7--7--7-7-7-7-7--7-7-7-7---|
----|--------------------------------------------------------|
  

  G2 Interlude Out








----|-0------------------7-------------------0------------------7---------|
----|-7------------------7-------------------7------------------7---------|
----|-7------------------9-------------------7------------------9---------|
----|-9------------------7-------------------9------------------7---------|
----|-9------------------7-------------------9------------------7---------|
----|---------------------------------------------------------------------|
  

  G2  



----|------------------|---------------------|--|
----|------------------|---------------------|--|
----|------------------|---------------------|--|
----|-5---5-------5----|----5---5-------5----|3x|
----|---7---7-5-7---7--|-7----7---7-5-7---7--|--|
----|------------------|-0-------------------|--|
  

  G3     Mid Riff   








----|---------------------------------|
----|---------------9/10-9------------|
----|-9------8-9-11--------11-9-9/11--|
----|-9/11\9--------------------------|
----|---------------------------------|
----|---------------------------------|
  

  G1 Outro



----|---------------------------------|------------------------|
----|---------------------------------|-12/14-12-10-12-10/12---|
----|---------------------------------|-11/13-11-9--11-9-/11---|
----|---------------------------------|------------------------|
----|---------------------------------|------------------------|
----|---------------------------------|------------------------|
  

  G3 Outro
Suggest correction new What's this?
You can suggest a correction to this tab. Community and Mods will review your correction and vote to approve or reject it.
comments
We did not receive enough feedback on this tab! Please rate:
print report bad tab
1 2 3 4 5
guest
You may want to rate the tab now too:
select rating
Please do not post tabs as comments. Select "correction" instead!