Oops, an error
Loading. Please wait.

Juliet Tab

version 1
version 1

Whole song

Interactive

207 views 1 this week
no commentswrite comment
1 2 3 4 5
please rate
add to favorites
launch autoscroll
font size
0
reset
how to read this tab
guitar tuner
Tab Pro tools
  • play this tab
  • loop segment
  • change instrument
  • show fretboard
  • metronome
×
Best way to learn
"Juliet"
Autoscroll
slow
fast
+/-
esc
set tempo
stop
Contributor
Difficulty
Tuning
intermediate
D A D G B E
Artist: Army Of Freshmen
Song: Juliet
Tuning: Drop D
Tabbed By: sXeDusten

This is my first tab. I didn't note it but those four 11s is actually supposed to be 8 
but I didn't have space. You can see my cover of it at http://www.youtube.com/watch?v=EO5QNG4LLHI


Intro (0:00)

e|----------------------------------------------------------------------------|
B|----------------------------------------------------------------------------|
G|----------------------------------------------------------------------------|
D|-------0--0-99-77---0--0-55-77--0--0-99-77-2222-55-77-----------------------|
A|-------0--0-99-77---0--0-55-77--0--0-99-77-2222-55-77-----------------------|
D|--0~---0--0-99-77---0--0-55-77--0--0-99-77-2222-55-77-----------------------|


Verse 1 (0:29)

e|---------------------------------------------------------------------------------------|
B|---------------------------------------------------------------------------------------|
G|---------------------------------------------------------------------------------------|
D|--7\0--00000000-55555555-99999999-777777\55--00000000-55555555-9999-7777-5555-7777-----|
A|--7\0--00000000-55555555-99999999-777777\55--00000000-55555555-9999-7777-5555-7777-----|
D|--7\0--00000000-55555555-99999999-777777\55--00000000-55555555-9999-7777-5555-7777-----|
PM       ******** ******** ******** ****** **  ******** ******** **** **** **** ****

Chorus (0:46)

e|-------------------------------------------------------------------|
B|-------------------------------------------------------------------|Play this
G|-------------------------------------------------------------------|twice.
D|--0-0-0-5-555--0-0-0-5-555--0-0-0-2-222--3-3-3-5-555---------------|
A|--0-0-0-5-555--0-0-0-5-555--0-0-0-2-222--3-3-3-5-555---------------|
D|--0-0-0-5-555--0-0-0-5-555--0-0-0-2-222--3-3-3-5-555---------------|

Post Chorus (1:01)

e|-----------------------------------------------------------------------|
B|-----------------------------------------------------------------------|
G|-----------------------------------------------------------------------|
D|--0--0-99-77---0--0-55-77--0--0-99-77-2222-55-77-----------------------|
A|--0--0-99-77---0--0-55-77--0--0-99-77-2222-55-77-----------------------|
D|--0--0-99-77---0--0-55-77--0--0-99-77-2222-55-77-----------------------|

Verse 2(1:23)

e|---------------------------------------------------------------------------------------|
B|---------------------------------------------------------------------------------------|
G|---------------------------------------------------------------------------------------|
D|--7\0--00000000-55555555-99999999-777777\55--00000000-55555555-9999-7777-5555-7777-----|
A|--7\0--00000000-55555555-99999999-777777\55--00000000-55555555-9999-7777-5555-7777-----|
D|--7\0--00000000-55555555-99999999-777777\55--00000000-55555555-9999-7777-5555-7777-----|
PM       ******** ******** ******** ****** **  ******** ******** **** **** **** **

Pre Chorus(1:38)

e|----------------------|
B|----------------------|play this
G|----------------------|twice.
D|--55555555-7~---------|
A|--55555555-7~---------|
D|--55555555-7~---------|
PM  ********

Chorus (1:43)

e|-------------------------------------------------------------------|
B|-------------------------------------------------------------------|Play this
G|-------------------------------------------------------------------|twice.
D|--0-0-0-5-555--0-0-0-5-555--0-0-0-2-222--3-3-3-5-555---------------|
A|--0-0-0-5-555--0-0-0-5-555--0-0-0-2-222--3-3-3-5-555---------------|
D|--0-0-0-5-555--0-0-0-5-555--0-0-0-2-222--3-3-3-5-555---------------|

Bridge (1:58)

e|----------------------------------------------------------------------------------------|
B|----------------------------------------------------------------------------------------|
G|-------------------------------------------------------------------------------7~-9-11--|
D|--99999999-77777777-00000000-55555555--99999999-11-11-11-11-00000000-00000000--x~-x-x---|
A|--99999999-77777777-00000000-55555555--99999999-11-11-11-11-00000000-00000000--5~-7-9---|
D|--99999999-77777777-00000000-55555555--99999999-11-11-11-11-00000000-00000000-----------|
PM                                                                     ********

Pre Chorus (2:28)

e|--------------------------------------------------------------------|
B|--------------------------------------------------------------------|
G|--------------------------------------------------------------------|
D|--00000000-55555555-9999-7777-5555-77-5-4---------------------------|
A|--00000000-55555555-9999-7777-5555-77-5-4---------------------------|
D|--00000000-55555555-9999-7777-5555-77-5-4---------------------------|

Chorus (2:36)

e|-------------------------------------------------------------------|
B|-------------------------------------------------------------------|Play this
G|-------------------------------------------------------------------|twice.
D|--0-0-0-5-555--0-0-0-5-555--0-0-0-2-222--3-3-3-5-555---------------|
A|--0-0-0-5-555--0-0-0-5-555--0-0-0-2-222--3-3-3-5-555---------------|
D|--0-0-0-5-555--0-0-0-5-555--0-0-0-2-222--3-3-3-5-555---------------|

Outro (2:51)
e|-----------------------------------------------------------------------|
B|-----------------------------------------------------------------------|Play this
G|-----------------------------------------------------------------------|twice.
D|--0000-99-77---0000-55-77--0000-99-77-2222-55-77-----------------------|
A|--0000-99-77---0000-55-77--0000-99-77-2222-55-77-----------------------|
D|--0000-99-77---0000-55-77--0000-99-77-2222-55-77-----------------------|

e|------------------------------|
B|------------------------------|
G|------------------------------|
D|--55555555-88888888--0~-------|
A|--55555555-88888888--0~-------|
D|--55555555-88888888--0~-------|
PM  ******** ********
comments
We did not receive enough feedback on this tab! Please rate:
print report bad tab
1 2 3 4 5
I want to post or [tab]
guest
You may want to rate the tab now too:
select rating
Please do not post tabs as comments. Select "correction" instead!