Oops, an error
Loading. Please wait.

True Tab

version 2
version 2

Whole song

2,146 views 1 this week
no commentswrite comment
1 2 3 4 5
x 5
add to favorites
×
Save as Personal and add changes to this tab that will be seen only by you. Learn more ›
×
You can save this tab as Personal to edit and correct it or add notes. All changes will be seen only by you. Learn more »
save as personal
new!
launch autoscroll
font size
0
reset
how to read this tab
guitar tuner
Autoscroll
slow
fast
+/-
esc
set tempo
stop
True
Artist:Arnee Hidalgo
Transcribed by: Walter Michael De la Cruz - Baguio City -
                      (Walterfdelacruz@yahoo.com)

This is my 2nd tab in this song . kasi medyo may mga mali sa 1st n gnwa ko kya
ineditko uli. I assure u that this is 100% correct.


Chords Used:


        BM7                G#m               EM7              Ebm7
  |-----2-----|        |----4-----|       |----X----|     |----X----|
  |-----4-----|        |----4-----|       |----7----|     |----7----|
  |-----3-----|        |----4-----|       |----8----|     |----6----|
  |-----4-----|        |----6-----|       |----9----|     |----8----|
  |-----2-----|        |----6-----|       |----7----|     |----6----|
  |-----------|        |----4-----|       |----X----|     |----x----|

        A                  E5                  C#        
  |-----5-----|        |----x-----|       |----0----|  
  |-----5-----|        |----x-----|       |----0----|     
  |-----6-----|        |----9-----|       |----6----|    
  |-----7-----|        |----9-----|       |----6----|     
  |-----7-----|        |----7-----|       |----4----|   
  |-----5-----|        |----x-----|       |----X----|   


Intro:BM7-G#/BM7-EM7-Ebm7   
       

E|----2---2----2---2-----7---7----6----6-------------------|
B|----4---4----4---4-----7---7----7----7-------------------|
G|----3---3----3---3-----8---8----6----6-------------------|
D|----4---4----2---2-----9---9----8----8-------------------|
A|--2---2--------------7----7---6----6---------------------|
E|-----------4----4-----------------------------------------|

   Hah    hah    hah     hah..


Use here Plucking:
BM7        Ebm7
So true, funny how it seems

EM7             A 
Always in time, but never in line for dreams

BM7         Ebm7
Head over Heels when toe to toe

            G#m         E5
This is the sound of my soul

             BM7
This is the sound

EM7                        BM7
I bought a ticket to the world

EM7                       BM7
But now i've come back again

EM7                           
Why do i find it hard to

BM7
write the next line

   EM7                        A
Oh i want the truth to be known

Refrain: (Plucking with strumming) 

BM7            G#m
Hah hah hah hah hah...

EM7           Ebm7          
I know this much is true

BM7            G#m
hah hah hah hah hah...

EM7           Ebm7    C#-A
i know this much is true


(Do satanza Chords)
With a thrill in my head
And a pill on my tongue
Disslove the nerves that have just begun
List'nin to Marvin(all night long)
This is the sound of my soul
This is the sound

Always slipping from my hands
sand's a time of its own
take your seaside arms
and write the next line
Oh i want the the truth to be known..

For any views, comments, revisions, and suggestions please send me an E-mail @
Walterfdelacruz@yahoo.com. Your opinions are greatly welcome! You can also invite me
in Friendster or Myspace
Suggest correction
comments
print report bad tab
guest
You may want to rate the tab now too:
select rating
Wanna post a correction for this tab? Suggest correction