Oops, an error
Loading. Please wait.

French Bazaar album chords

by Arno
73 views 3 this week
no commentswrite comment
1 2 3 4 5
3 more votes to show rating
add to favorites
×
Save as Personal and add changes to this tab that will be seen only by you. Learn more ›
×
You can save this tab as Personal to edit and correct it or add notes. All changes will be seen only by you. Learn more »
launch autoscroll
font size
0
reset
transpose
0
reset
simplify chords
display chords
guitar tuner
edit
Autoscroll
slow
fast
+/-
esc
set tempo
stop
Author
Difficulty
newg [tm] 49,651
intermediate
Strumming
There is no strumming pattern for this song yet. and get +5 IQ
    *****************
    *     Arno      *
    *****************           


                  French Bazaar     (2004)
                 ---------------



E-mail: gwendal.mollo@orange.fr
Tabbed by: newg    (http://profile.ultimate-guitar.com/newg/)


Tracklist :

        1       Chic et pas cher
        2       La Vie est une Partouze                         
        3       Françoise                       
        4       Chanteur de Charme                      
        5       Lili                    
        6       Femme riche                     
        7       In Love Avec une DJ                     
        8       40 Ans                  
        9       Vide                    
        10      Bonbons                         
        11      Voir un ami pleurer                     
        12      la Fête                 



-------------------------------------------------------------------------------
                             Arno - Chic et pas cher
-------------------------------------------------------------------------------

Album : French Bazaar
Tempo : 108
Tabbed by:newg
Tabbed by: newg    (http://profile.ultimate-guitar.com/newg/)

    A5    Am
e|-----------------------|
B|--------1--1-----------|
G|--2--2--2--2-----------|
D|--2--2--2--2--1--0-----|
A|--0--0--0--0--------3--|
E|-----------------------|


Je les aime tous, comme moi-même
Les biens sont bien, Mais les mieux sont mieux
J'ai vu la pauvreté à St Tropez
J'ai vu des pop stars frustrées

La vie est belle, chic et pas cher
La vie est belle, chic et pas cher

J'ai connu un rappeur avec une chaîne en or 
Il criait « Motherfuckers »,même quand il dort
Tout le monde cherche la vérité
Ils chantent les mêmes tubes d’été

La vie est belle, chic et pas cher x4


Ici on fait des régimes
Là-bas on crève de faim
Et les top models font leur défilé 
Pour la mode de demain

La vie est belle, chic et pas cher x4





                  ~~~~~~~~~~~~~~~~~~~~~~~~~~~~~~~~~~~~



-------------------------------------------------------------------------------
                             Arno - La vie est une partouze
-------------------------------------------------------------------------------
Album : French Bazaar
Tempo : 3/4   90
Tabbed by:newg
Tabbed by: newg    (http://profile.ultimate-guitar.com/newg/)

Tout les accords en barré (sauf exception)

intro en arpège :
Am Em   x2   
Am Em  x2    (Em 022000)
Am Em F Dm Am  
Dm F Em      (F 133211 , Em 022000)


   Am  Em      Am       Em                Am
Il est tard ce soir, ma tête dans l'brouillard
    Em     F   Dm         Am
Mon goût salé, je sens la bière
Dm       F   Em
Elle, la fraise
    Am        Em       Am
Le diable s'occupe de lui
     Em           Am
Les anges sont en grève
     Em          F
Allongée, elle s'ennuie
Dm              Am
Mais le pire de tout, 
Dm       F    Em    Am   Dm  
elle est jo___lie

Refrain :
   A         A7     Dm        G         G7     Am 
La vie c'est une partouze, la vie c'est une partouze

       Am    Em        Am
J'suis bien, bien avec rien
     Em         Am
Mais mieux avec peu
        Em         F   
Tout le monde a le droit
Dm             Am
Le droit être con
Dm            F     Em
J'suis le roi du monde
 
   Am       Em            Am
Je bois, je bois quand je veux
   Em            Am
Je paye quand je peux
     Em       F    
J'accepte l'hiver, 
Dm             Am
j'aime bien l'été
Dm            F     Em
J'suis le roi du monde

[Refrain] x3





                  ~~~~~~~~~~~~~~~~~~~~~~~~~~~~~~~~~~~~



----------------------------------------------------------------------------------------------------
                                      Arno - Françoise 
----------------------------------------------------------------------------------------------------

Album : French Bazaar (2004)
Tempo : 126
E-mail: gwendal.mollo@orange.fr
Tabbed by: newg    (http://profile.ultimate-guitar.com/newg/)

  Basse 1 ere couplet 
   E
G|--------------------|
D|--------------------|
A|--7--------5-----7--|
E|-----5-5-7-----7----|

  Riff 2
e|--------------------|
B|--------------------|
G|--------------------|
D|--------------------|
A|-----2h1---1h0------|
E|-0h3----------------|
 
   Bm
e|--2------------------|
B|--3--3-2-1-0---------|
G|--4------------------|
D|--4------------------|
A|--2------------------|
E|---------------------|


                                E
Fais ta belle, pas cruelle, naturelle
                                E
Comme une vraie mademoiselle
                                E
On est moche, mais on s'amuse
                                E
Du rire aux larmes

E E/G

                            Riff 2              
Avec mon regard de vieux bébé
                                    Riff 2
Je me lave les yeux dans ton décolleté

Refrain :
E                         G   E                     G
Danse, danse ma Françoise,    danse, danse, danse
E                            G   
Danse, danse ma Françoise,       comme une Bruxelloise

Bm x2

E                            Riff 2
Sois fière, sois gracieuse
E                            Riff 2
Le monde change et nous aussi

[Refrain]

Bm x4

Bm                            Bm 
Danse, danse ma Françoise,    danse, danse, danse                 x4
Bm                            Bm 
Danse…                        Comme une Bruxelloise
Bm 
Danse





                  ~~~~~~~~~~~~~~~~~~~~~~~~~~~~~~~~~~~~




----------------------------------------------------------------------------------------------------
                                      Arno - Chanteur De Charme
----------------------------------------------------------------------------------------------------

Album : French Bazaar (2004)
Tempo : 117
E-mail: gwendal.mollo@orange.fr
Tabbed by: newg    (http://profile.ultimate-guitar.com/newg/)

  Intro :
e|----------------------|
B|---------------3h4h5--|
G|-------------2--------|
D|----------------------|
A|-0--4h5h6h7-----------|
E|----------------------|

  Solo :
e|----------------|----------------|----------------|
B|----------------|----------------|----------------|
G|-6-----------6--|-7-----------9--|-7-----6--------|
D|-----------7----|----------------|----------------|
A|----------------|----------------|----------------|
E|----------------|----------------|----------------|

e|----------------|----------------|----------------12-----------|
B|----------------|----------------|-------14-12-14-----14---12--|
G|-6-----------6--|-7-----------6--|6s9--------------------------|
D|-----------7----|----------------|-----------------------------|
A|----------------|----------------|-----------------------------|
E|----------------|----------------|-----------------------------|

  Basse intro
G|----------------|
D|----------------|
A|----------------|
E|--5--0-3-0-3-0--| 



Riff basse x4

A                   D         A           A
 J'suis chanteur de charme et riche aussi
   D                                  A
Je veux être mince comme un pneu de vélo
   E                      D                  A
Je veux que tout le monde m'aime même les clodos
A                   D         A           A
 J'suis chanteur de charme et riche aussi
   D                    A
Ma thérapeute est une danoise
E            D          A      A
Ma masseuse,     une chinoise

Solo

Refrain :
A           C#m           F#
Regarde les traces de mes larmes
A              E         A
Faire pleurer, c'est mon jeu

A                   D         A           A
 J'suis chanteur de charme et gentil aussi
D                                             A
J'ai de la chance que je reste jeune pour mon âge
E               D          A
Ma fiancé à dix-huit, elle flippe aussi


[Refrain]

D D A x2

E                        A
Faire pleurer, c'est mon jeu

A                   D         A           A
 J'suis chanteur de charme
A                   D         A           A
 J'suis chanteur de charme
A                   D         A           A
 J'suis chanteur de charme et gentil aussi
A                   D         A           A
 J'suis chanteur de charme et riche aussi

A





                  ~~~~~~~~~~~~~~~~~~~~~~~~~~~~~~~~~~~~




----------------------------------------------------------------------------------------------------
                              Arno - Femme Riche
----------------------------------------------------------------------------------------------------

Album : French Bazaar (2004)
Tempo : 92
E-mail: gwendal.mollo@orange.fr
Tabbed by: newg    (http://profile.ultimate-guitar.com/newg/)

Capo 2

G G

G                  B           F          Em
J'ai rencontré des mecs beaux, même des macros
G                     B             F        Em
J'ai rencontrés des cocus, et des oiseaux perdus
     C        G           Em  D
J'ai pas le talent d'être anarchiste
C                 G        Em    D
Je regarde le défilé comme un touriste

Refrain :
   B               C       F    G   G
Je promène ma femme riche
   B             C       F    G   G
Coiffée comme un caniche


G              B               F       Em
J'ai connu des femmes, avec un air inconnu 
 G        B                   F          D
Avec un regard de feu, et des sourires retenus
C                 G     Em         D
Tout le monde est beau, beau et content
    C                        G       Em               D
Les amoureux n'ont pas de soucis, le dimanche après-midi

[Refrain] 

G B F Em
G B F D

   G                 B     F           Em
Je laisse la vie pleuvoir, Sans me mouiller
        C               B       D                   D
Mais je pense pas comme eux, je danse pas comme eux

[Refrain] x2





                  ~~~~~~~~~~~~~~~~~~~~~~~~~~~~~~~~~~~~




----------------------------------------------------------------------------------------------------
                              Arno - 40 ans
----------------------------------------------------------------------------------------------------

Album : French Bazaar (2004)
Tempo : 95
E-mail: gwendal.mollo@orange.fr
Tabbed by: newg    (http://profile.ultimate-guitar.com/newg/)

Capo 3

  Am               Am              G               F
e|---------------|---------------|---------------|---------------|
B|---------------|---------------|------0--------|-------1-------|
G|---------------|---------------|------0--------|-------2-------|
D|----2--0-------|-----2--0------|---0-------0---|----3----------|
A|-0--------3----|-0-3-------3---|---------------|---------------|
E|---------------|---------------|-3-------------|-1-------------|


Am                  Am                       G             F
Tu te mets les yeux dans la poche, t'as tout vu, mais t'as rien vécu
Am                Am            G               F
Dieu n'est pas un DJ, c'est une femme de ménage au chômage

Refrain :
   Dm           Dm         C                C
Je sais qu't'as 40 ans, et tu t'ennuies, la vérité
        Em           Em
Ne fais pas de bruit

Am                Am                     G    F
Tu te bats contre ta nature, oui ça fait mal, les blessures
Am            Am                   G                   F
T'es la femme de ta mère, tant pis pour ton père, il a grandi

[Refrain]

Am Am G F x2

[Refrain]

Am              Am                      G              F
Ne me parle pas du passé, c'n'est pas   un endroit,  à visiter
Am                  Am                        G        F
Quand on est con et malheureux, On a toujours besoin,  du bon Dieu

[Refrain]

Dm Dm C C Em Em

[Refrain]





                  ~~~~~~~~~~~~~~~~~~~~~~~~~~~~~~~~~~~~




----------------------------------------------------------------------------------------------------
                              Arno - la Fête
----------------------------------------------------------------------------------------------------

Album : French Bazaar (2004)
Tempo : 78
E-mail: gwendal.mollo@orange.fr
Tabbed by: newg    (http://profile.ultimate-guitar.com/newg/)

                 G             Em            A             D
e|-------------|-3-----------|-0-----------|-0-----------|-2-----------|
B|---3-3-----1-|-0--3-3---1--|-0-----------|-2----2--2-4-|-3-----------|
G|-------------|-0-----------|-0-----------|-2-----------|-2-----------|
D|-------------|-0-----------|-2-----------|-2-----------|-0-----------|
A|-------------|-2-----------|-2-----------|-0-----------|-------------|
E|-------------|-3-----------|-0-----------|-------------|-------------|

              G                         Em                        A                     D
Oui, c’est la fête chez moi, et tout le monde est là, même une partie de ma famille est là
              G                         Em                     A                   D
Delphine elle est saoule, elle vie dans un trou, mais c’est normal elle cherche un mâle
            G                            Em              A                     D
Nicole elle est banquière, elle a la trentaine, avec des problèmes d’une célibataire
             G                     Em              A                        D
Ma cousine Sophie, elle s’ennuie aussi, mais la douleur c’est son meilleur ami

G Em A D

           G              Em                  A                           D
René et Margot, sont en colo,  ils boivent de l’eau, ils ne disent pas un mot
             G                          Em                  A                     D
Germaine est une danseuse, elle est devenue pulpeuse, et de plus en plus une emmerdeuse

G Em A D
              G                  Em           A                 D
Louis il s’en fout, s’en fout de tout, il a déjà la tête au paradis
              G                         Em                        A                     D
Oui, c’est la fête chez moi, et tout le monde est là, même une partie de ma famille est là

G Em A D x3

G     Em     A         D
Les méchants c’est pas nous x4

G Em A D

            
            
Suggest correction
Creating personal tab
Creating personal tab
You can edit any tab online and save it as your Personal.

You can edit, replace or remove any tab part or add personal notes – all changes will be seen only by you.

Personal tabs can be accessed anytime from any device, even offline.
Learn more »
Give kudos to tab author, rate the tab!
1 2 3 4 5
comments
print report bad tab
guest
You may want to rate the tab now too:
select rating
Wanna post a correction for this tab? Suggest correction