Oops, an error
Loading. Please wait.

Goodbye bass

by Arsenic
10 views 1 this week
no commentswrite comment
1 2 3 4 5
3 more votes to show rating
add to favorites
×
Save as Personal and add changes to this tab that will be seen only by you. Learn more ›
×
You can save this tab as Personal to edit and correct it or add notes. All changes will be seen only by you. Learn more »
launch autoscroll
font size
0
reset
guitar tuner
edit
Autoscroll
slow
fast
+/-
esc
set tempo
stop
BAND:   ARSENIC (MARYLAND)
TRACK:  GOODBYE

FROM ALBUM: "LOVE SONGS FOR THE WEAK MINDED SOULS"

BASS TAB
JOSH PICKERAL
"PICK"

YOUTUBE ADDRESS (TO LISTEN TO TRACK)
https://www.youtube.com/watch?v=mC_QG4nF0Zg&feature=youtu.be
https://youtu.be/mC_QG4nF0Zg


TUNED TO C# STANDARD (C#, F#, B, E)

[Bass intro]
E |-----9-------------------14/15/14/12-----12----12--------------------------------------|
B |---7--7-------------------------------15----14-----------------------------------------|
F#|-0------0------------------------------------------15--14------------------------------|
C#|---------------------------------------------------------------------------------------|

[Main parts] x4
THIS IS ALSO THE VERSE

E |-----9------9------10------10------9-----------10------10-------10------10------9------|
B |---7---7------7-------7-------7------7-------7----7-------7--------7------7-------7----|
F#|-0-------0------0-------0-------0---------8---------8-------8--------8------8----------|
C#|---------------------------------------------------------------------------------------|

E |------7-----7--5----------9-----9------------------------------------------|
B |----7-----7------7------9-----9-------------7-----7-----7-----7------5-6---|
F#|--5-----5------------7------7-------------7-----7-----7-----7-----7--------|
C#|----------------------------------8--7--5-----5-----5-----5-----5----------|

[Chorus]
E |----------------------------------------------------------------------------------------|
B |----------------------------------------------------------------------------------------|
F#|---------------3-------3--5/8---8--8-8-8--7-8---7-8-10--8-7-----------------------------|
C#|-3--4--5~--x-x---5-3-5----------------------------------------8-------------------------|

E |--------------7-----------------------------------------------------------5---5/7/9-7-5--|
B |--------------7------------------------------------------7-7-7-5---5--7^8---7----------7-|
F#|-5---5-5-5--5-5-5---3-5-7--7-7-7--5--5/7/5-------(FILL*)---------7-----------------------|
C#|------------------------------------------8-7-5------------------------------------------|

[FILL*] NOTE:
I PLAY THIS FILL SLIGHTLY DIFFERENT, AT TIMES
I TRIED TO MATCH THIS TAB TO WHAT WAS RECORDED ON THE ALBUM
I LIKE TO BE ABLE TO HIT THE LOW "C#|-3-4-5", WITH THE GUITAR, WHEN THE CHORUS X2 STARTS.
TO DO SO, YOU'D HAVE TO CUT THE FILL SHORT (LEAVE OUT THE LAST 2 NOTES) AND GET BACK DOWN LOW

[Chorus] x2
SAME AS FIRST.  HOWEVER, INSTEAD OF GOING HIGH TO 8TH FRET, 2ND STRING (D), GO LOW TO 1ST FRET, 1ST STRING (D)
E |-------------------------------------------------------------|
B |----------------------------------3-3-3-2-3---2-3-5-3-2------|
F#|-----------x-x--3-------3-------------------------------3/---|
C#|-3--4--5----------5-3-5---5/1----1---------------------------|

E |--------------7-----------------------------------------------------------5---5/7/9-7-5---|
E |--------------7-----------------------------------------------------------5---5/7/9-7-5---|
F#|-5---5-5-5--5-5-5---3-5-7--7-7-7--5--5/7/5-------(FILL*)---------7------------------------|
C#|-------------------------------------------8-7-5------------------------------------------|

[Verse] x4 
VERSE SAME AS [BASS INTRO] [MAIN PARTS]
 
E |-----9------9------10------10------9-----------10------10-------10------10------9------|
B |---7---7------7-------7-------7------7-------7----7-------7--------7------7-------7----|
F#|-0-------0------0-------0-------0---------8---------8-------8--------8------8----------|
C#|---------------------------------------------------------------------------------------|

E |------7-----7--5----------9-----9------------------------------------------|
B |----7-----7------7------9-----9-------------7-----7-----7-----7------5-6---|
F#|--5-----5------------7------7-------------7-----7-----7-----7-----7--------|
C#|----------------------------------8--7--5-----5-----5-----5-----5----------|

[Chorus] x2 
E |----------------------------------------------------------------------------------------|
B |----------------------------------------------------------------------------------------|
F#|---------------3-------3--5/8---8--8-8-8--7-8---7-8-10--8-7-----------------------------|
C#|-3--4--5~--x-x---5-3-5----------------------------------------8-------------------------|

E |--------------7-----------------------------------------------------------5---5/7/9-7-5--|
B |--------------7------------------------------------------7-7-7-5---5--7^8---7----------7-|
F#|-5---5-5-5--5-5-5---3-5-7--7-7-7--5--5/7/5-------(FILL*)---------7-----------------------|
C#|------------------------------------------8-7-5------------------------------------------|

NOTE:  ON THIS [CHORUS], I USE A "LOW FILL", BOTH TIMES, RATHER THAN THE [FILL*]
"LOW FILL"

E |--------------------------------------------------------------------------|
B |--------------------------------------------------------------------------|
F#|---------------------------------3----3---5/6/5--3------------------------|
C#|-8-7-5-------5-5-5--3-5-5--3-5-5----5--------------5----------------------|

[Bridge / Guitar solo / Bass solo]
E |------------------------2-2-2--0---0---------------------------------------0-----2/3/2--------|
B |---------------------------------3---3-2-----3--3-3-3--2-3-3--2-3-3---0/2/3--3----------3-2---|
F#|-0--0-0-0---0-0---0-0--------------------3----------------------------------------------------|
C#|-----------3-----3----------------------------------------------------------------------------|

E |------------7--5----------------------9-----------------------------------------------------------------|
B |-----------7-----7-6-5--------------9---9---------------------------------------------------------------|
F#|-3/5--5-5-5--------------5/7--7-7-7-------------------------------------3---3--5/6-5---3----------------|
C#|-------------------------------------------8-7-5---5-5-5--3-5-5--3-5-5----5-------------5---------------|

PLAY BRIDGE 2X
AT END OF BRIDGE, PLAY 5-7777 (BELOW), HITTING WITH KICK DRUM

E |----------------------------------------------------------------------------------------------|
B |-------7-7-7-7------7-7-7-7-------7-7-7-7--------7-7-7-7------7-------------------------------|
F#|----------------------------------------------------------------------------------------------|
C#|-8-7-5-------------5-------------5--------------5-----------5---5/SLIDE DOWN------------------|

[Breakdown] x2
E |---------------------------------------------------------------------------|
B |---------------------------------------------------------------------------|
F#|--0--0-0-0---0--0-0--0-0-----0--0-0-0---0--0-0--0-0------------------------|
C#|---------------------------------------------------------------------------|

E |---------------------------------------------------------------------------------------------------------|
B |---------------------------------------------------------------------------------------------------------|
F#|--8--8-8-8---8--8-8--8-8-----8---8-8-8---8--8-8---8-7-5--5-5-5--5--5-5--3-5-7--7-7-7---5-7-7--5-7/12*----|
C#|---------------------------------------------------------------------------------------------------------|

E |---------------------------------------------------------------------------------------------------------|
B |--------------------------------------------------------14--14-14-14-14-14--12---------------------------|
F#|--12--12-12-12-12---12--12-12-12-12---12--12-12-12-12--------------------------14-13-12------------------|
C#|---------------------------------------------------------------------------------------------------------|
 
[Breakdown] x2
PART 2
E |----------------------------------------------------------------------------------|
B |----------------------------------------------------------------------------------|
F#|----------------------------------------------------------------------------------|
C#|-0-2-5---0-2-5---0-2-5---0-2-5---0-2-5---0-0-5-8---0-5-8---0-5-8---0-5-8---0-5-8--|* CONTINUED BELOW


E |-------------------------------------------------------|
B |-------------------------------------------------------|
F#|-------------------------------------------------------|
C#|-0-0---8-10---0-8-10---0-10---0-10-12---0-10-12--------|


E |--------------------------------------------------------------------|
B |--------7-7-7-7-----7-7-7-7-----7-7-7-7-----7-7-7-7---5-------------|
F#|--------------------------------------------------------8-7-5-------|
C#|---8-7-5-----------5-----------5-----------5------------------8-----|


[Bridge / Guitar solo / Bass solo] x2
E |------------------------2-2-2--0---0---------------------------------------0-----2/3/2--------|
B |---------------------------------3---3-2-----3--3-3-3--2-3-3--2-3-3---0/2/3--3----------3-2---|
F#|-0--0-0-0---0-0---0-0--------------------3----------------------------------------------------|
C#|-----------3-----3----------------------------------------------------------------------------|

E |------------7--5----------------------9-----------------------------------------------------------------|
B |-----------7-----7-6-5--------------9---9---------------------------------------------------------------|
F#|-3/5--5-5-5--------------5/7--7-7-7-------------------------------------3---3--5/6-5---3----------------|
C#|-------------------------------------------8-7-5---5-5-5--3-5-5--3-5-5----5-------------5---------------|

[Outro]
PART 1 (SIMILAR TO BREAKDOWN)
E |-------------------------------------------------------|
B |-------------------------------------------------------|
F#|-0--0-0-0---0--0-0---0-0----0--0-0-0---0--0-0---0-0----|
C#|-------------------------------------------------------|


E |-------------------------------------------------------|
B |-------------------------------------------------------|
F#|-8--8-8-8---8--8-8---8-8----8--8-8-8---8--8-8---8-7----|
C#|-------------------------------------------------------|

E |-------------------------------------------------------|
B |-------------------------------------------------------|
F#|-5--5-5-5---3-5-5---3-5-7---7-7-7---5-7-7--------------|
C#|--------------------------------------------8-7-5~-----|

[Outro] x4
PART 2
E |----------------------------------------------------------------|
B |----------------------------------------------------------------|
F#|------------------------8-7-5---3-5-3---------------------------|
C#|-0-3---5-3-0---5-3-0--------------------5-----------------------|

NOTE:  USE CHORDS AT END (SHOWN BELOW)
E |-----------------10-9-7---5-7-5--------------------------------------------------|
B |-----------------10-9-7---5-7-5---7---7---7---5----------------------------------|
F#|------------------8-7-5---3-5-3----------------------(FANCY RUN TO END SONG------|
C#|-5-3-0---5-3-0--------------------5---5---5---3---5~-----------------------------|


ARSENIC (MARYLAND)
"GOODBYE"

LOVE SONGS FOR THE WEAK MINDED SOULS


ARSENIC (MARYLAND) IS:
------------------------------
WAYNE HOSIER:     VOCALS
JOSH PICKERAL:    BASS GUITAR
JARROD POLICELLI: GUITAR
LARRY PICKERAL:   DRUMS


VISIT ARSENIC ON FACEBOOK
http://www.facebook.com/ArsenicMusic

            
            
Suggest correction
Creating personal tab
Creating personal tab
You can edit any tab online and save it as your Personal.

You can edit, replace or remove any tab part or add personal notes – all changes will be seen only by you.

Personal tabs can be accessed anytime from any device, even offline.
Learn more »
Give kudos to tab author, rate the tab!
1 2 3 4 5
comments
print report bad tab
guest
You may want to rate the tab now too:
select rating
Wanna post a correction for this tab? Suggest correction