Oops, an error
Loading. Please wait.

A Diamond For Disease tab

by Arsis
5,067 views 1 this week
3 commentsread comments
1 2 3 4 5
x 3
add to favorites
×
Save as Personal and add changes to this tab that will be seen only by you. Learn more ›
×
You can save this tab as Personal to edit and correct it or add notes. All changes will be seen only by you. Learn more »
launch autoscroll
font size
0
reset
how to read this tab
guitar tuner
edit
Autoscroll
slow
fast
+/-
esc
set tempo
stop
Author
Not the complete song but various parts of it. The times are indicated for which riffs. 
got this from a power tab I randomly found on the internet. I figured I'd tab it out. 
thanks to the author (whoever you are)! Enjoy!

Tuning Drop C (C G C F A D)

Intro :38 - 1:01 (Play twice)
Guitar 1
|---------------------------------|
|---------------------------------|
|-7-------------------------------|
|-----------------8---------------|
|-5-------------------------------|
|-----------------8---------------|
|
Guitar 2
|----------------------------------|
|----------------------------------|
|-7-------10---------------7-------|
|----------------------------------|
|-5-------8----------------5-------|
|----------------------------------|

Guitar 1
|----------------------------------|
|----------------------------------|
|-10---------------7---------------|
|----------------------------------|
|-8----------------5---------------|
|----------------------------------|
|
Guitar 2
|---------------------------------|
|---------------------------------|
|---------------------------------|
|---------8----------------7------|
|---------------------------------|
|---------8----------------7------|

Guitar 1
|----------------------------------|
|----------------------------------|
|----------------------------------|
|-7----------------10--------------|
|----------------------------------|
|-7----------------10--------------|
|
Guitar 2
|----------------------------------|
|----------------------------------|
|----------------------------------|
|---------10---------------7-------|
|----------------------------------|
|---------10---------------7-------|

Guitar 1
|---------------------------------|
|---------------------------------|
|-9---------------7---------------|
|---------------------------------|
|-7---------------5---------------|
|---------------------------------|
|
Guitar 2
|---------------------------------|
|---------------------------------|
|---------------------------------|
|-----------------7---------------|
|---------------------------------|
|-----------------7---------------|

1:01 - 1:22 (Play twice)
Guitar 1
|-----------------|-----------------|-----------------|-----------------|
|-----------------|-----------------|-----------------|-----------------|
|-----------------|-----------------|-----------------|-----------------|
|-----------------|-----------------|-----------------|-----------------|
|---------1-------|---------1-------|---------1-------|-5-3-1-0-7-5-3-1-|
|-3-2-3-5---5-3-2-|-3-2-3-5---5-3-2-|-3-2-3-5---5-3-2-|-----------------|
|
Guitar 2
|-----------------|-----------------|-----------------|-----------------|
|-----------------|-----------------|-----------------|-----------------|
|-----------------|-----------------|-----------------|-----------------|
|-----------------|-----------------|-----------------|-5-3-5-7-5-3-5-7-|
|-1-0-1-3-5-3-1-0-|-1-0-1-3-5-3-1-0-|-1-0-1-3-5-3-1-0-|-----------------|
|-----------------|-----------------|-----------------|-----------------|

Guitar 1
|-----------------------------|
|-----------------------------|
|-----------------------------|
|-----------------------------|
|-1h4p1----------4h7p4--------|
|-----------------------------|
|
Guitar 2
|-----------------------------|
|-----------------------------|
|-----------------------------|
|--------8h11p8---------5h8p5-|
|-----------------------------|
|-----------------------------|

Guitar 1
|-----------------|-----------------|-----------------|
|-----------------|-----------------|-----------------|
|-----------------|-----------------|-----------------|
|-----------------|-----------------|-----------------|
|---------1-------|---------1-------|---------1-------|
|-3-2-3-5---5-3-2-|-3-2-3-5---5-3-2-|-3-2-3-5---5-3-2-|
|
Guitar 2
|-----------------|-----------------|-----------------|
|-----------------|-----------------|-----------------|
|-----------------|-----------------|-----------------|
|-----------------|-----------------|-----------------|
|-1-0-1-3-5-3-1-0-|-1-0-1-3-5-3-1-0-|-1-0-1-3-5-3-1-0-|
|-----------------|-----------------|-----------------|

Guitar 1
|------------------------------|------------------------------|
|------------------------------|------------------------------|
|------------------------------|------------------------------|
|------------------------------|------------------------------|
|-1h4p1----------4h7p4---------|-7-10-7--------11-------------|
|------------------------------|------------------------------|
|
Guitar 2
|------------------------------|------------------------------|
|------------------------------|------------------------------|
|------------------------------|------------------------------|
|--------8h11p8---------8h11p8-|---------5h8----5-------------|
|------------------------------|------------------------------|
|------------------------------|------------------------------|


1:22 - 1:30 (Play 4 times)
Guitar 1
|-----------------|-----------------|
|-----------------|-----------------|
|-9h12p9-6h9p6----|-----------------|
|---------------8-|-----------------|
|-----------------|---------1-------|
|-----------------|-3-2-3-5---5-3-2-|
|
Guitar 2
|-----------------|-----------------|
|-8h11p8-5h8p5----|-----------------|
|---------------6-|-----------------|
|-----------------|-----------------|
|-----------------|-1-0-1-3-5-3-1-0-|
|-----------------|-----------------|

7:10 - 7:18
Guitar 1
|-17-15-------------15-------------------------------------|
|-------18-17-15-------18-17-15-------18-17-15-------------|
|----------------17-------------17-16----------17-16--16---|
|----------------------------------------------------------|
|----------------------------------------------------------|
|----------------------------------------------------------|
|
Guitar 2
|----------------------------------------------------------|
|----------------------------------------------------------|
|-------------------------------------------------------12-|
|-------------------------------------14-------------------|
|-12-------------------------------------------------------|
|----------------------------------------------------------|

Guitar 1
|-------------------------------------------------------------------------|
|-------------------------------------------------------------------------|
|-17----------------17----16----14----14-------------------------14-------|
|-------------------------------------------------------------------------|
|-------------------------------------------------------------------------|
|-------------------------------------------------------------------------|
|
Guitar 2
|-------------------------------------------------------------------------|
|-------------------------------------------------------------------------|
|-14-12-10----------12-10-------------10----------------------10----------|
|----------14-12-10-------14-12-10-------14-12-10----10-12-14----14-12-14-|
|----------------------------------14-------------14----------------------|
|-------------------------------------------------------------------------|

Guitar 1
|---------------------------------|-19p15----------15-22-20-19----|
|---------------------------------|-------17----17-------------20-|
|-17-16-17-14-17-12-16-17-16-14---|----------16-------------------|
|---------------------------------|-------------------------------|
|---------------------------------|-------------------------------|
|---------------------------------|-------------------------------|
|
Guitar 2
|---------------------------------|-----------------------------|
|---------------------------------|-12-10-12-8-12----10-12-10-8-|
|-9-----------------9-------------|---------------10------------|
|---------------------------------|-----------------------------|
|---------------------------------|-----------------------------|
|---------------------------------|-----------------------------|

7:18 - 7:42 (Repeat above riff with 3rd guitar)
Guitar 3
|----------------------------|----------------------------|
|----------------------------|----------------------------|
|----------------------------|----------------------------|
|---------------7------------|---------------7------------|
|------7-8-7------8-7-8-7----|------7-8-7------8-7-8-7----|
|-7-10-------10-----------10-|-7-10-------10-----------10-|

Guitar 3 (continued)
|-------------------------|---------------------|
|-------------------------|---------------------|
|-------------------------|---------------------|
|-------------------------|---------------------|
|-------------------------|-2-0-------2-5-3-2---|
|-10-9-10-7-10-5-9-10-9-7-|-----5-2-5---------5-|

7:42 - 8:05
Guitars 1 & 2
|---------------------|--------------------|
|---------------------|--------------------|
|-7------------9---10-|--------12-12-9--9--|
|--------------7---10-|--------10-10-10-10-|
|-5-------------------|--------------------|
|------0-0-0-0---0----|--0-0-0-------------|

Guitars 1 & 2
|---------------------|--------------------|
|---------------------|--------------------|
|-7------------9---10-|--------12-12-9--9--|
|--------------7---10-|--------10-10-10-10-|
|-5-------------------|--------------------|
|------0-0-0-0---0----|--0-0-0-------------|

Guitar 1
|---------------------|--------------------|
|---------------------|--------------------|
|-7------------9---10-|--------12-12-9--9--|
|--------------7---10-|--------10-10-10-10-|
|-5-------------------|--------------------|
|------0-0-0-0---0----|--0-0-0-------------|
|
Guitar 2
|-----------------------|------------------------|
|-----------------------|------------------------|
|-10-----------10-14-14-|---------15-15-12-12-14-|
|-----------------------|---------13-13-10-10-12-|
|-8------------8--12-12-|------------------------|
|------0-0-0-0----------|---0-0-0----------------|

Guitar 1
|---------------------|--------------------|
|---------------------|--------------------|
|-7------------9---10-|--------12-12-9--9--|
|--------------7---10-|--------10-10-10-10-|
|-5-------------------|--------------------|
|------0-0-0-0---0----|--0-0-0-------------|
|
Guitar 2
|-----------------------|------------------------|
|-----------------------|------------------------|
|-10-----------10-14-14-|---------15-15-12-12-14-|
|-----------------------|---------13-13-10-10-12-|
|-8------------8--12-12-|------------------------|
|------0-0-0-0----------|---0-0-0----------------|

            
            
Suggest correction
Creating personal tab
Creating personal tab
You can edit any tab online and save it as your Personal.

You can edit, replace or remove any tab part or add personal notes – all changes will be seen only by you.

Personal tabs can be accessed anytime from any device, even offline.
Learn more »
Give kudos to tab author, rate the tab!
1 2 3 4 5
comments
print report bad tab
3 comments total.
0 reply
P1ayingW1thF1re 404 Sep 07, 2008 02:43 PM

You copied the guitar pro tab floating around so I guess it's correct....but tab it ourself next time.

0 reply
brayman33 323 Aug 28, 2011 08:22 PM

Okay well, I can't find how to edit the tab, so I'm going to post some corrections here:

1:01 - 1:22 (Play twice)
Guitar 1
|-----------------|-----------------|-----------------|-----------------|
|-----------------|-----------------|-----------------|-----------------|
|-----------------|-----------------|-----------------|-----------------|
|-----------------|-----------------|-----------------|-----------------|
|---------1-------|---------1-------|---------1-------|-5-4-1-0-7-5-4-0-|
|-0-1-3-5---5-3-1-|-3-1-3-5---5-3-1-|-0-1-3-5---5-3-1-|-----------------|
|
Guitar 2
|-----------------|-----------------|-----------------|---------------------|
|-----------------|-----------------|-----------------|---------------------|
|-----------------|-----------------|-----------------|---------------------|
|-----------------|-----------------|-----------------|---------------------|
|---------5-------|---------5-------|---------5-------|-0-8-10-12-0-8-10-12-|
|-0-5-6-8---8-6-5-|-6-5-6-8---8-6-5-|-0-5-6-8---8-6-5-|---------------------|

-1 reply
brayman33 323 Sep 04, 2011 09:24 AM

And the tuning should actually be D G C F A D.

guest
You may want to rate the tab now too:
select rating
Wanna post a correction for this tab? Suggest correction