Oops, an error
Loading. Please wait.

Bad Weekend Tab

version 2
version 2

Intro

Whole song

Interactive

2,106 views 12 this week
1 commentread comment
1 2 3 4 5
excellent!
x 11
add to favorites
launch autoscroll
font size
0
reset
how to read this tab
guitar tuner
Tab Pro tools
  • play this tab
  • loop segment
  • change instrument
  • show fretboard
  • metronome
×
Best way to learn
"Bad Weekend"
Autoscroll
slow
fast
+/-
esc
set tempo
stop
Contributor
This is an update of my last Bad Weekend tab, but this one is complete and is easier to
play because i moved it to the correct strings.

E--------------------------------------------------------------------|
B--------------------------------------------------------------------|
G---------------------------------4-4-----4---4---4-4-----4---4------|
D----0-2-4-2-0-4----0-2-4-2-0-4--------------------------------------|
A-2--------------0--------------3-----3-3---3------------------------|
E-----------------------------------------------3-----3-3---3--------|
comments
print report bad tab
1 comment total.
0 reply
highlydeveloped wrote on September 18 2006, 01:55 pm

quite perfect but:
--------------------------------------|
--------------------------------------|
---4-4---4-4---4---4-4---4-4---4------|
--------------------------------------|
-3-----3-----3------------------------|
-----------------3-----3-3---3--------|
that's the correct ending

I want to post or [tab]
guest
You may want to rate the tab now too:
select rating
Please do not post tabs as comments. Select "correction" instead!