Oops, an error
Loading. Please wait.

Emily Kane Bass Tab

1,312 views 1 this week
no commentswrite comment
1 2 3 4 5
2 more votes to show rating
add to favorites
launch autoscroll
font size
0
reset
guitar tuner
Autoscroll
slow
fast
+/-
esc
set tempo
stop
Help us to improve Ultimate-Guitar.com Take our survey!
×
Author
Difficulty
Tuning
novice
E A D G B E
-------------------------------------------------------------------------------
                             EMILY KANE - Art Brut
-------------------------------------------------------------------------------


Tuning: Standard (EADG)

Verse:

G|------------------------------------|
D|------------------------------------|
A|----------5---10---7---5---3---5----|
E|---3---7----------------------------|

Chorus:

G|---------------------------------|
D|---------------------------------|
A|-3-3-3-3-3-3-3-3-7-7-7-7-7-7-7-7-|
E|---------------------------------|

G|---------------------------------|
D|---------------------------------|
A|-3-3-3-3-3-3-3-3-2---------------|
E|---------------------------------|

Let the last note ring out

Second verse and chorus the same as the first.

For the "I.. don't even know where she lives.." part there's no bass for a while, then 
comes in, played quite quietly:

G|--------------------|
D|--------------------|
A|-------5-3---5-7----|
E|--3-----------------|

repeat that until "Other girls went and other girls came..", then play:

G|---------------------------------------------------------------------------|
D|---------------------------------------------------------------------------|
A|--------------5---3-3-3-3-3---5---7-7-7-7-7-7-7-7-7-7-7-7-7-7-7-7----------|
E|--3-3-3-3-3----------------------------------------------------------------|
(not entirely sure about that part, it's certainly close but it may be slightly off - 
improvements if you have any)

and once more at the end:

G|--------------------|
D|--------------------|
A|-------5-3---5-7----|
E|--3-----------------|

| /  slide up
| \  slide down
| h  hammer-on
| p  pull-off
| ~  vibrato
| +  harmonic
| x  Mute note
===============================================================================
Suggest correction
Give kudos to tab author, rate the tab!
1 2 3 4 5
comments
print report bad tab
guest
You may want to rate the tab now too:
select rating
Wanna post a correction for this tab? Suggest correction