Oops, an error
Loading. Please wait.

Emily Kane Tab

7,893 views 1 this week
4 commentsread comments
1 2 3 4 5
accurate
x 3
add to favorites
launch autoscroll
font size
0
reset
how to read this tab
guitar tuner
Tab Pro tools
  • play this tab
  • loop segment
  • change instrument
  • show fretboard
  • metronome
×
Best way to learn
"Emily Kane"
Autoscroll
slow
fast
+/-
esc
set tempo
stop
Contributor
----------------------------------------------------------------------------
                             Emily Kane - Art Brut
----------------------------------------------------------------------------

Been waiting for someone to tab this since it came out, so i figured i should
give it a shot. First tab, so comments or corrections welcomed

Enjoy!

Intro
-----

Guitar 1

e||--------------------------------------------|
B||--------------------------------------------|
G||--------------------------------------------|
D||-5--5--5--4-4-4-4-4-4--2--2--2--------------|
A||--------------------------------5-5-5-5-5-5-|
E||--------------------------------------------|

e||--------------------------------------------|
B||--------------------------------------------|
G||--------------------------------------------|
D||--------------------------------------------|
A||-3--3--3--2-2-2-2-2-2-----------5-5-5-5-5-5-|
E||-----------------------5--5--5--------------|

After one play thru of that, guitar 2 comes in:

e||--------------------------------------------|
B||--------------------------------------------|
G||-12-12-12~----------------------------------|
D||-12-12-12~----------------------------------|
A||-10-10-10~----------------------------------|
E||--------------------------------------------|

alternate strum, hold the last chord

Verse
-----

Guitar 1

Same as intro, play four times, last two times with distortion

Guitar 2

e||--------------------------------------------|
B||--------------------------------------------|
G||-12-12-----12-12-----12-12-----12-12--------|
D||-12-12-----12-12-----12-12-----12-12--------|  X 8
A||-10-10-----10-10-----10-10-----10-10--------|
E||--------------------------------------------|

alternate strum, deaden the second note immediatly after strumming

Chorus
------

Guitar 1

e||--------------------------------------------|
B||----12----12----12----12--------------------|
G||-12----12----12----12----12----12----12-----|
D||----------------------------14----14----14--|
A||--------------------------------------------|
E||--------------------------------------------|

e||--------------------------------------------|
B||----12----12----12----12--------------------|
G||-12----12----12----12----11~----------------|
D||--------------------------------------------|
A||--------------------------------------------|
E||--------------------------------------------|

Guitar 2

e||--------------------------------------------|
B||--------------------------------------------|
G||-12-12-12-12-12-12-12-12-9--9--9--9--9--9---|
D||-12-12-12-12-12-12-12-12-9--9--9--9--9--9---|
A||-10-10-10-10-10-10-10-10-7--7--7--7--7--7---|
E||--------------------------------------------|

e||--------------------------------------------|
B||--------------------------------------------|
G||-12-12-12-12-12-12-12-12-11-----------------|
D||-12-12-12-12-12-12-12-12-11-----------------|
A||-10-10-10-10-10-10-10-10-9------------------|
E||--------------------------------------------|

Down strums, kill every note after strum


Second verse and chorus are same as before


Bridge
------

"I... Dont even know where she lives"

Guitar 1

e||--------------------------------------------|
B||--------------------------------------------|
G||--------------------------------------------|
D||--------------------------------------------|
A||--------------------------------------------|
E||--------------------------------------------|

e||--------------------------------------------|
B||----0------0------0------0------------------|
G||-0----0--0---0--0---0--0---0----------------|
D||--------------------------------------------|
A||--------------------------------------------|
E||--------------------------------------------|

"I've not seen her, in ten years"

Guitar 1

e||--------------------------------------------|
B||--------------------------------------------|
G||--------------------------------------------|
D||--------------------------------------------|
A||--------------------------------------------|
E||--------------------------------------------|

e||--------------------0-----0-----0-----------|
B||-----------------------0-----0-----0--------|
G||--------------------------------------------|
D||--------------------------------------------|
A||--------------------------------------------|
E||--------------------------------------------|

Guitar 2

e||--------------------------------------------|
B||--------------------------------------------|
G||-12-12-12-----------------------------------|
D||-12-12-12-----------------------------------|
A||-10-10-10-----------------------------------|
E||--------------------------------------------|

e||--------------------------------------------|
B||--------------------------------------------|
G||-9------------------------------------------|
D||-9------------------------------------------|
A||-7------------------------------------------|
E||--------------------------------------------|

"9 months, three weeks"

Guitar 1

e||--------------------------------------------|
B||--------------------------------------------|
G||--------------------------------------------|
D||--------------------------------------------|
A||--------------------------------------------|
E||--------------------------------------------|

e||--------------------0-----0-----0-----------|
B||-----------------------0-----0-----0--------|
G||--------------------------------------------|
D||--------------------------------------------|
A||--------------------------------------------|
E||--------------------------------------------|

Guitar 2

e||--------------------------------------------|
B||--------------------------------------------|
G||-12-----------------------------------------|
D||-12-----------------------------------------|
A||-10-----------------------------------------|
E||--------------------------------------------|

e||--------------------------------------------|
B||--------------------------------------------|
G||-9------------------------------------------|
D||-9------------------------------------------|
A||-7------------------------------------------|
E||--------------------------------------------|


"6 hours, 13 minutes...."

Guitar 1

e||--------------------------------------------|
B||--------------------------------------------|
G||--------------------------------------------|
D||--------------------------------------------|
A||--------------------------------------------|
E||--------------------------------------------|

e||--------------------------------------------|
B||------------------------5--5-5-5-5-5-5-5-5--|
G||--------------------------------------------|
D||--------------------------------------------|
A||--------------------------------------------|
E||--------------------------------------------|

Guitar 2

e||--------------------------------------------|
B||--------------------------------------------|
G||-12-----------------------------------------|
D||-12-----------------------------------------|
A||-10-----------------------------------------|
E||--------------------------------------------|

e||--------------------------------------------|
B||--------------------------------------------|
G||-9------------------------------------------|
D||-9------------------------------------------|
A||-7------------------------------------------|
E||--------------------------------------------|


Ending
------

Guitar 2
play this until the end of the song

e||--------------------------------------------|
B||--------------------------------------------|
G||--------------------------------------------|
D||-5-5-5-5-5----12----10-10-10-10-10---12-----|
A||-5-5-5-5-5----12----10-10-10-10-10---12-----|
E||-3-3-3-3-3----10----8--8--8--8--8----10-----|

e||--------------------------------------------|
B||--------------------------------------------|
G||--------------------------------------------|
D||-2-2-2-2-2-2-2-2-2-2-2-2-2-2-2-2-2----------|
A||-2-2-2-2-2-2-2-2-2-2-2-2-2-2-2-2-2----------|
E||-0-0-0-0-0-0-0-0-0-0-0-0-0-0-0-0-0----------|


Solo - 2:09
-----------

Guitar 1

e||--------------------------------------------------|
B||--------------------------------------------------|
G||--12-12-12-12-12-14-12-11-12-12-12-12-12-14-12-11-|
D||--------------------------------------------------|
A||--------------------------------------------------|
E||--------------------------------------------------|

e||--------------------------------------------------|
B||--------------------------------------------------|
G||--12-12-12-12-12-14-12-11-12-14-12-11-12-14-12-11-|
D||--------------------------------------------------|
A||--------------------------------------------------|
E||--------------------------------------------------|

e||--------------------------------------------------|
B||--12-12-12-12-12-12-12-12-12-12-12-12-12-13-12----|
G||-----------------------------------------------14-|
D||--------------------------------------------------|
A||--------------------------------------------------|
E||--------------------------------------------------|

e||--------------------------------------------------|
B||--12-12-12-12-12-12-12-12-12-12-12-12-12-13-12----|
G||-----------------------------------------------14-|
D||--------------------------------------------------|
A||--------------------------------------------------|
E||--------------------------------------------------|

e||--------------------------------------------------|
B||--------------------------------------------------|
G||--12-12-12-12-12-14-12-11-12-12-12-12-12-14-12-11-|
D||--------------------------------------------------|
A||--------------------------------------------------|
E||--------------------------------------------------|

e||--------------------------------------------------|
B||--------------------------------------------------|
G||--12-12-12-12-12-14-12-11-12-14-12-11-12-14-12-11-|
D||--------------------------------------------------|
A||--------------------------------------------------|
E||--------------------------------------------------|

e||--------------------------------------------------|
B||--12-12-12-12-12-12-12-12-12-12-12-12-12-13-12----|
G||-----------------------------------------------14-|
D||--------------------------------------------------|
A||--------------------------------------------------|
E||--------------------------------------------------|

e||--------------------------------------------------|
B||--12~---------------------------------------------|
G||--------------------------------------------------|
D||--------------------------------------------------|
A||--------------------------------------------------|
E||--------------------------------------------------|
comments
We did not receive enough feedback on this tab! Please rate:
print report bad tab
1 2 3 4 5
4 comments total. Showing first comments.
0 reply
JackWhite wrote on October 16 2006, 07:01 am

great! i've been waiting for this tab for months. thank you very much!! :)

0 reply
mad fer it wrote on February 24 2007, 07:33 am

fantastic tab XD

+1 reply
urmamaxtralarge wrote on July 12 2010, 06:54 pm

the intro iss played with chords not single notes on guitar 1. on guitar 2 the chords are much higher and i think are played on the G, B, and e string. this wud b an easy version for the tab tht works alright, but its not right.

I want to post or [tab]
guest
You may want to rate the tab now too:
select rating
Please do not post tabs as comments. Select "correction" instead!