Oops, an error
Loading. Please wait.

Formed A Band Bass Tab

version 1
version 1

Whole song

Interactive

542 views 1 this week
no commentswrite comment
1 2 3 4 5
3 more votes to show rating
add to favorites
launch autoscroll
font size
0
reset
guitar tuner
Autoscroll
slow
fast
+/-
esc
set tempo
stop
Help us to improve Ultimate-Guitar.com Take our survey!
×
Hey!

This is a easy song!
Enjoy it!

Chorus:

G||---------------|---------------|---------------|---------------|
D||---------------|---------------|---------------|---------------|
A||---------------|---------------|---------------|6-6-6-7-7-7-7-7|
E||5-5-5-5-5-5-5-5|5-5-5-5-5-5-5-5|5-5-5-5-5-5-5-5|---------------|

Verse:

G||-----------|----------|-----------|----------|
D||-----------|----------|-----------|----------|
A||7---7------|5-5--3---3|7---7------|5-5--3---3|
E||------7---7|----------|------7---7|----------|

Outro (after the verse)

G||------|------|
D||------|------|
A||12~---|12~---|
E||------|------|

~ = let ring the note.

This is it! enjoy!

SweBass~

Suggest correction
Give kudos to tab author, rate the tab!
1 2 3 4 5
comments
print report bad tab
guest
You may want to rate the tab now too:
select rating
Wanna post a correction for this tab? Suggest correction