Oops, an error
Loading. Please wait.

People In Love Tab

1,447 views 1 this week
1 commentread comment
1 2 3 4 5
1 last vote to show rating
add to favorites
launch autoscroll
font size
0
reset
how to read this tab
guitar tuner
Autoscroll
slow
fast
+/-
esc
set tempo
stop
Help us to improve Ultimate-Guitar.com Take our survey!
×
Author
Amazing song
Right then

The intro on lead is
e|---------0----0--5-2-0-------------0-----------------------------------|
B|-----0-2---0-2---------2-0-----0-2----0-2-1-0 (not sure on that part)--|
G|---2------2----------------2--2------2---------------------------------|
D|-----------------------------------------------------------------------|
A|-----------------------------------------------------------------------|
E|-----------------------------------------------------------------------|

and rhythm guitar is playing

A, C#m, D, F, G


then both play D, E

then the verse is the same as the intro


then D, F#, A


to every girl, thats ever been with me .. (so pass me the wine..
e|------------------------------------------------------------------------------------|
B|------------------------------------------------------------------------------------|
G|--9-9-9-7-7-7-6-6-6-----------------------------------------------------------------|
D|-----------=------------------------------------------------------------------------|
A|--7-7-7-5-5-5-4-4-4-----------------------------------------------------------------|
E|------------------------------------------------------------------------------------|

D                  E
I've got over you, eventually

D            F#     A
What becomes of the broken hearted?
They're drunk for a few weeks then back were they started


then same again

and i dont know the end riff but the chords are just

D, F#, A for most of it

i've tabbed all you need to play you just need to work out the order.
Suggest correction
Give kudos to tab author, rate the tab!
1 2 3 4 5
comments
print report bad tab
1 comment total.
+2 reply
luckyman12 176 May 01, 2008 06:12 PM

the riff (as i play it) is..

e--------------------5-2-----------------------------------------
b------2-5----2-5--2-----5-2---2------2-5-----2-5--2-3-2---2-----
g--2-4-----2-4---------------4----2-4-----2-4------------4---4-2-
d----------------------------------------------------------------
a----------------------------------------------------------------
e----------------------------------------------------------------


ends on A


the rest is spot on though :)

guest
You may want to rate the tab now too:
select rating
Wanna post a correction for this tab? Suggest correction