Oops, an error
Loading. Please wait.

Kitano tab

10 views 1 this week
no commentswrite comment
1 2 3 4 5
3 more votes to show rating
add to favorites
×
Save as Personal and add changes to this tab that will be seen only by you. Learn more ›
×
You can save this tab as Personal to edit and correct it or add notes. All changes will be seen only by you. Learn more »
launch autoscroll
font size
0
reset
how to read this tab
guitar tuner
edit
Autoscroll
slow
fast
+/-
esc
set tempo
stop
[Intro]

C#|--------------------------------------|--------------------------------------|
G#|--------------------------------------|--------------------------------------|
E |--------------------------------------|--------------------------------------|
B |--------------------------------------|--------------------------------------|
F#|--------------------------------------|--------------------------------------|
B |--------------------------------------|--------------------------------------|
  |                                      |                                      |
  |                                      |                                      |
C#|--------------------------------------|--------------------------------------|
G#|--------------------------------------|--------------------------------------|
E |--------------------------------------|--------------------------------------|
B |--------------------------------------|--------------------------------------|
F#|--------------------------------------|--------------------------------------|
B |--------------------------------------|--------------------------------------|
  |                                      |                                      |
  |                                      |                                      |
G |--------------------------------------|--------------------------------------|
D |--------------------------------------|--------------------------------------|
A |----------12-12-12---------12-12-12-12|--------------------------------------|
E |--------------------------------------|--------------------------------------|
B |9-9-9-9-9----------8-8-8-8------------|5-5-5-5-5-5-5-5-5-5-5-5-5-5-5-5-5-5-5-|


C#|--------------------------------------|--------------------------------------|
G#|--------------------------------------|--------------------------------------|
E |--------------------------------------|--------------------------------------|
B |9------------------12-----------------|8b9-----------------------------------|
F#|--------------------------------------|--------------------------------------|
B |--------------------------------------|--------------------------------------|
  |                                      |                                      |
  |                                      |                                      |
C#|--------------------------------------|--------------------------------------|
G#|------12-----------------15-----------|--------------------------------------|
E |11--------11----11/14--------14-------|10b12---------------------------------|
B |--------------------------------------|--------------------------------------|  X3
F#|--------------------------------------|--------------------------------------|
B |--------------------------------------|--------------------------------------|
  |                                      |                                      |
  |                                      |                                      |
G |--------------------------------------|--------------------------------------|
D |--------------------------------------|--------------------------------------|
A |----------12-12-12---------12-12-12-12|--------------------------------------|
E |--------------------------------------|--------------------------------------|
B |9-9-9-9-9----------8-8-8-8------------|5-5-5-5-5-5-5-5-5-5-5-5-5-5-5-5-5-5-5-|


C#|--------------------------------------|--------------------------------------|
G#|--------------------------------------|--------------------------------------|
E |--------------------------------------|--------------------------------------|
B |9------------------12-----------------|8b9-----------------8-8-8-8-8-8-8-8-8-|
F#|--------------------------------------|--------------------------------------|
B |--------------------------------------|--------------------------------------|
  |                                      |                                      |
  |                                      |                                      |
C#|--------------------------------------|--------------------------------------|
G#|------12-----------------15-----------|--------------------------------------|
E |11--------11----11/14--------14-------|10b12---------------101010101010101010|
B |--------------------------------------|--------------------------------------|
F#|--------------------------------------|--------------------------------------|
B |--------------------------------------|--------------------------------------|
  |                                      |                                      |
  |                                      |                                      |
G |--------------------------------------|--------------------------------------|
D |--------------------------------------|--------------------------------------|
A |----------12-12-12---------12-12-12-12|--------------------------------------|
E |--------------------------------------|--------------------------------------|
B |9-9-9-9-9----------8-8-8-8------------|5-5-5-5-5-5-5-5-5-5-5-5-5-5-5-5-5-5-5-|


[Verse] X4

C#|14------------------13----------------|--------------------------------------|
G#|--------------------------------------|15------------------------------------|
E |--------------------------------------|--------------------------------------|
B |--------------------------------------|--------------------------------------|
F#|--------------------------------------|--------------------------------------|
B |--------------------------------------|--------------------------------------|
  |                                      |                                      |
  |                                      |                                      |
G |--------------------------------------|--------------------------------------|
D |--------------------------------------|--------------------------------------|
A |----------12-12-12---------12-12-12-12|--------------------------------------|
E |--------------------------------------|--------------------------------------|
B |9-9-9-9-9----------8-8-8-8------------|5-5-5-5-5-5-5-5-5-5-5-5-5-5-5-5-5-5-5-|


[Chorus] X2

C#|--------------------------------------|--------------------------------------|
G#|--------------------------------------|--------------------------------------|
E |----------10b11--------------10b11----|--------------------------------------|
B |9-9-9-9------------8-8-8-8------------|5---5---5-5---------------------------|
F#|9-9-9-9------------8-8-8-8------------|5---5---5-5---------------------------|
B |9-9-9-9------------8-8-8-8------------|5---5---5-5----------3-0-0-3-0-0-3-5--|
  |                                      |                                      |
  |                                      |                                      |
G |--------------------------------------|--------------------------------------|
D |--------------------------------------|--------------------------------------|
A |----------12-----------------12-------|--------------------------------------|
E |--------------------------------------|--------------------------------------|
B |9-9-9-9------------8-8-8-8------------|5---5---5-5----------3-0-0-3-0-0-3-5--|


C#|--------------------------------------|--------------------------------------|
G#|--------------------------------------|--------------------------------------|
E |----------10b11--------------10b11----|--------------------------------------|
B |9-9-9-9------------8-8-8-8------------|5---5---5-5----------0-0----0---0-----|
F#|9-9-9-9------------8-8-8-8------------|5---5---5-5----------0-0----0---0-----|
B |9-9-9-9------------8-8-8-8------------|5---5---5-5----------0-0----0---0-----|
  |                                      |                                      |
  |                                      |                                      |
G |--------------------------------------|--------------------------------------|
D |--------------------------------------|--------------------------------------|
A |----------12-----------------12-------|--------------------------------------|
E |--------------------------------------|--------------------------------------|
B |9-9-9-9------------8-8-8-8------------|5---5---5-5----------0-0----0---0-----|


[Verse] X4

C#|14------------------13----------------|--------------------------------------|
G#|--------------------------------------|15------------------------------------|
E |--------------------------------------|--------------------------------------|
B |--------------------------------------|--------------------------------------|
F#|--------------------------------------|--------------------------------------|
B |--------------------------------------|--------------------------------------|
  |                                      |                                      |
  |                                      |                                      |
G |--------------------------------------|--------------------------------------|
D |--------------------------------------|--------------------------------------|
A |----------12-12-12---------12-12-12-12|--------------------------------------|
E |--------------------------------------|--------------------------------------|
B |9-9-9-9-9----------8-8-8-8------------|5-5-5-5-5-5-5-5-5-5-5-5-5-5-5-5-5-5-5-|


[Chorus] X2

C#|--------------------------------------|--------------------------------------|
G#|--------------------------------------|--------------------------------------|
E |----------10b11--------------10b11----|--------------------------------------|
B |9-9-9-9------------8-8-8-8------------|5---5---5-5---------------------------|
F#|9-9-9-9------------8-8-8-8------------|5---5---5-5---------------------------|
B |9-9-9-9------------8-8-8-8------------|5---5---5-5----------3-0-0-3-0-0-3-5--|
  |                                      |                                      |
  |                                      |                                      |
G |--------------------------------------|--------------------------------------|
D |--------------------------------------|--------------------------------------|
A |----------12-----------------12-------|--------------------------------------|
E |--------------------------------------|--------------------------------------|
B |9-9-9-9------------8-8-8-8------------|5---5---5-5----------3-0-0-3-0-0-3-5--|


C#|--------------------------------------|--------------------------------------|
G#|--------------------------------------|--------------------------------------|
E |----------10b11--------------10b11----|--------------------------------------|
B |9-9-9-9------------8-8-8-8------------|5---5---5-5----------0-0----0---0-----|
F#|9-9-9-9------------8-8-8-8------------|5---5---5-5----------0-0----0---0-----|
B |9-9-9-9------------8-8-8-8------------|5---5---5-5----------0-0----0---0-----|
  |                                      |                                      |
  |                                      |                                      |
G |--------------------------------------|--------------------------------------|
D |--------------------------------------|--------------------------------------|
A |----------12-----------------12-------|--------------------------------------|
E |--------------------------------------|--------------------------------------|
B |9-9-9-9------------8-8-8-8------------|5---5---5-5----------0-0----0---0-----|


[Verse 3 only bass/drums/vocals?] X4


[Bridge] X2

C#|--------------------------------------|--------------------------------------|
G#|--------------------------------------|--------------------------------------|
E |----------10b11--------------10b11----|----------10b11--------------10b11----|
B |9-9-9-9------------8-8-8-8------------|9-9-9-9------------8-8-8-8------------|
F#|9-9-9-9------------8-8-8-8------------|9-9-9-9------------8-8-8-8------------|
B |9-9-9-9------------8-8-8-8------------|9-9-9-9------------8-8-8-8------------|
  |                                      |                                      |
  |                                      |                                      |
G |--------------------------------------|--------------------------------------|
D |--------------------------------------|--------------------------------------|
A |--------------------------------------|--------------------------------------|
E |--------------------------------------|--------------------------------------|
B |9-9-9-9------------8-8-8-8------------|9-9-9-9------------8-8-8-8------------|


C#|--------------------------------------|
G#|--------------------------------------|
E |--------------------------------------|
B |--------------------------------------|
F#|--------------------------------------|
B |5---5---5---5---5---5---5---5---5---5-|
  |                                      |
  |                                      |
G |--------------------------------------|
D |--------------------------------------|
A |--------------------------------------|
E |--------------------------------------|
B |5---5---5---5---5---5---5---5---5---5-|


[Chorus] X2

C#|--------------------------------------|--------------------------------------|
G#|--------------------------------------|--------------------------------------|
E |----------10b11--------------10b11----|--------------------------------------|
B |9-9-9-9------------8-8-8-8------------|5---5---5-5---------------------------|
F#|9-9-9-9------------8-8-8-8------------|5---5---5-5---------------------------|
B |9-9-9-9------------8-8-8-8------------|5---5---5-5----------3-0-0-3-0-0-3-5--|
  |                                      |                                      |
  |                                      |                                      |
G |--------------------------------------|--------------------------------------|
D |--------------------------------------|--------------------------------------|
A |----------12-----------------12-------|--------------------------------------|
E |--------------------------------------|--------------------------------------|
B |9-9-9-9------------8-8-8-8------------|5---5---5-5----------3-0-0-3-0-0-3-5--|



C#|--------------------------------------|--------------------------------------|
G#|--------------------------------------|--------------------------------------|
E |----------10b11--------------10b11----|--------------------------------------|
B |9-9-9-9------------8-8-8-8------------|5---5---5-5----------0-0----0---0-----|
F#|9-9-9-9------------8-8-8-8------------|5---5---5-5----------0-0----0---0-----|
B |9-9-9-9------------8-8-8-8------------|5---5---5-5----------0-0----0---0-----|
  |                                      |                                      |
  |                                      |                                      |
G |--------------------------------------|--------------------------------------|
D |--------------------------------------|--------------------------------------|
A |----------12-----------------12-------|--------------------------------------|
E |--------------------------------------|--------------------------------------|
B |9-9-9-9------------8-8-8-8------------|5---5---5-5----------0-0----0---0-----|


[Outro]

C#|--------------------------------------|--------------------------------------|
G#|--------------------------------------|--------------------------------------|
E |----------10b11--------------10b11----|----------10b11-----------------------|
B |9-9-9-9------------8-8-8-8------------|9-9-9-9------------8-8-8-8------------|
F#|9-9-9-9------------8-8-8-8------------|9-9-9-9------------8-8-8-8------------|
B |9-9-9-9------------8-8-8-8------------|9-9-9-9------------8-8-8-8------------|
  |                                      |                                      |
  |                                      |                                      |
G |--------------------------------------|--------------------------------------|
D |--------------------------------------|--------------------------------------|
A |--------------------------------------|--------------------------------------|
E |--------------------------------------|--------------------------------------|
B |9-9-9-9------------8-8-8-8------------|9-9-9-9------------8-8-8-8------------|



************************************

| b  Bend
| /  Slide up

************************************
Suggest correction
Creating personal tab
Creating personal tab
You can edit any tab online and save it as your Personal.

You can edit, replace or remove any tab part or add personal notes – all changes will be seen only by you.

Personal tabs can be accessed anytime from any device, even offline.
Learn more »
Give kudos to tab author, rate the tab!
1 2 3 4 5
comments
print report bad tab
guest
You may want to rate the tab now too:
select rating
Wanna post a correction for this tab? Suggest correction