Oops, an error
Loading. Please wait.

Satin tab

19 views 1 this week
no commentswrite comment
1 2 3 4 5
3 more votes to show rating
add to favorites
×
Save as Personal and add changes to this tab that will be seen only by you. Learn more ›
×
You can save this tab as Personal to edit and correct it or add notes. All changes will be seen only by you. Learn more »
launch autoscroll
font size
0
reset
how to read this tab
guitar tuner
edit
Autoscroll
slow
fast
+/-
esc
set tempo
stop
-------------------------------------------------------------------------------
                             Sati(n) - Art of Scarlet
-------------------------------------------------------------------------------
Tabbed by: Danny Nocito
E-mail: apexdebaby@gmail.com

https://www.facebook.com/artofscarlet/

Tuning: BF#BEG#C#

Intro
C#|--------------------------------|--------------------------------|
G#|--------------------------------|--------------------------------|
E |--------------------------------|------------------------2-2-2-2-|
B |--------------------------------|------------------------3-3-3-3-|
F#|--------------------------------|------------------------2-2-2-2-|
B |0-2-2-0-2-2-0-2---0-2-0-2-5-2-0-|0-2-2-0-2-2-0-2---0-2-0---------|

C#|--------------------------------|--------------------------------|
G#|--------------------------------|--------------------------------|
E |--------------------------------|--------------------------------|
B |--------------------------------|------------------------3---3---|
F#|--------------------------------|------------------------2---3---|
B |0-2-2-0-2-2-0-2---0-2-0-2-5-2-0-|0-2-2-0-2-2-0-2---0-2-0-----3---|

C#|--------------------------------|--------------------------------|
G#|--------------------------------|--------------------------------|
E |--------------------------------|------------------------2-2-2-2-|
B |0-2-2-0-2-2-0-2---0-2-0-2-5-2-0-|0-2-2-0-2-2-0-2---0-2-0-3-3-3-3-|
F#|0-2-2-0-2-2-0-2---0-2-0-2-5-2-0-|0-2-2-0-2-2-0-2---0-2-0-2-2-2-2-|
B |0-2-2-0-2-2-0-2---0-2-0-2-5-2-0-|0-2-2-0-2-2-0-2---0-2-0---------|

C#|--------------------------------|--------------------------------|
G#|--------------------------------|--------------------------------|
E |--------------------------------|--------------------------------|
B |0-2-2-0-2-2-0-2---0-2-0-2-5-2-0-|0-2-2-0-2-2-2-0-----------------|
F#|0-2-2-0-2-2-0-2---0-2-0-2-5-2-0-|0-2-2-0-2-2-2-0-----------------|
B |0-2-2-0-2-2-0-2---0-2-0-2-5-2-0-|0-2-2-0-2-2-2-0-----------------|

Verse 1
C#|0------------------0----0-------|0-------------------------------|
G#|8------------------8----8-------|0-------------------------------|
E |9------------------9----9-------|6-------------------------------| x2
B |x------------------x----x-------|9-------------------------------|  
F#|7------------------8----7-------|7-------------------------------|
B |--------------------------------|--------------------------------|

Chorus
C#|--------------------------------|--------------------------------|
G#|--------------------------------|--------------------------------|
E |--------------------------------|------------------------2-2-2-2-|
B |0-2-2-0-2-2-0-2---0-2-0-2-5-2-0-|0-2-2-0-2-2-0-2---0-2-0-3-3-3-3-|
F#|0-2-2-0-2-2-0-2---0-2-0-2-5-2-0-|0-2-2-0-2-2-0-2---0-2-0-2-2-2-2-|
B |0-2-2-0-2-2-0-2---0-2-0-2-5-2-0-|0-2-2-0-2-2-0-2---0-2-0---------|

C#|--------------------------------|--------------------------------|
G#|--------------------------------|--------------------------------|
E |--------------------------------|--------------------------------|
B |0-2-2-0-2-2-0-2---0-2-0-2-5-2-0-|0-2-2-0-2-2-0-2---0-2-0-3---3---|
F#|0-2-2-0-2-2-0-2---0-2-0-2-5-2-0-|0-2-2-0-2-2-0-2---0-2-0-2---3---|
B |0-2-2-0-2-2-0-2---0-2-0-2-5-2-0-|0-2-2-0-2-2-0-2---0-2-0-----3---|

C#|--------------------------------|--------------------------------|
G#|--------------------------------|--------------------------------|
E |--------------------------------|------------------------2-2-2-2-|
B |0-2-2-0-2-2-0-2---0-2-0-2-5-2-0-|0-2-2-0-2-2-0-2---0-2-0-3-3-3-3-|
F#|0-2-2-0-2-2-0-2---0-2-0-2-5-2-0-|0-2-2-0-2-2-0-2---0-2-0-2-2-2-2-|
B |0-2-2-0-2-2-0-2---0-2-0-2-5-2-0-|0-2-2-0-2-2-0-2---0-2-0---------|

C#|--------------------------------|--------------------------------|
G#|--------------------------------|--------------------------------|
E |--------------------------------|--------------------------------|
B |0-2-2-0-2-2-0-2---0-2-0-2-5-2-0-|0-2-2-0-2-2-0-2h3---2---0---2---|
F#|0-2-2-0-2-2-0-2---0-2-0-2-5-2-0-|0-2-2-0-2-2-0-2h3---2---0---2---|
B |0-2-2-0-2-2-0-2---0-2-0-2-5-2-0-|0-2-2-0-2-2-0-2h3---2---0---2---|

Verse 2
C#|0------------------0----0-------|0-------------------------------|
G#|8------------------8----8-------|0-------------------------------|
E |9------------------9----9-------|6-------------------------------| x2
B |x------------------x----x-------|9-------------------------------|  
F#|7------------------8----7-------|7-------------------------------|
B |--------------------------------|--------------------------------|

Chorus
C#|--------------------------------|--------------------------------|
G#|--------------------------------|--------------------------------|
E |--------------------------------|------------------------2-2-2-2-|
B |0-2-2-0-2-2-0-2---0-2-0-2-5-2-0-|0-2-2-0-2-2-0-2---0-2-0-3-3-3-3-|
F#|0-2-2-0-2-2-0-2---0-2-0-2-5-2-0-|0-2-2-0-2-2-0-2---0-2-0-2-2-2-2-|
B |0-2-2-0-2-2-0-2---0-2-0-2-5-2-0-|0-2-2-0-2-2-0-2---0-2-0---------|

C#|--------------------------------|--------------------------------|
G#|--------------------------------|--------------------------------|
E |--------------------------------|--------------------------------|
B |0-2-2-0-2-2-0-2---0-2-0-2-5-2-0-|0-2-2-0-2-2-0-2---0-2-0-3---3---|
F#|0-2-2-0-2-2-0-2---0-2-0-2-5-2-0-|0-2-2-0-2-2-0-2---0-2-0-2---3---|
B |0-2-2-0-2-2-0-2---0-2-0-2-5-2-0-|0-2-2-0-2-2-0-2---0-2-0-----3---|

C#|--------------------------------|--------------------------------|
G#|--------------------------------|--------------------------------|
E |--------------------------------|------------------------2-2-2-2-|
B |0-2-2-0-2-2-0-2---0-2-0-2-5-2-0-|0-2-2-0-2-2-0-2---0-2-0-3-3-3-3-|
F#|0-2-2-0-2-2-0-2---0-2-0-2-5-2-0-|0-2-2-0-2-2-0-2---0-2-0-2-2-2-2-|
B |0-2-2-0-2-2-0-2---0-2-0-2-5-2-0-|0-2-2-0-2-2-0-2---0-2-0---------|

C#|--------------------------------|--------------------------------|
G#|--------------------------------|--------------------------------|
E |--------------------------------|--------------------------------|
B |0-2-2-0-2-2-0-2---0-2-0-2-5-2-0-|0-2-2-0-2-2-0-2h3---2---0---2---|
F#|0-2-2-0-2-2-0-2---0-2-0-2-5-2-0-|0-2-2-0-2-2-0-2h3---2---0---2---|
B |0-2-2-0-2-2-0-2---0-2-0-2-5-2-0-|0-2-2-0-2-2-0-2h3---2---0---2---|

Bridge
C#|----------------------------|----------------------------|
G#|----------------------------|----------------------------|
E |----------------------------|----------------------6-----|
B |8---8-8-8-8-8-7---7-7-7-7-7-|8---8-8-8-8-8---7--8--5--8--|
F#|5---5-5-5-5-5-5---5-5-5-5-5-|5---5-5-5-5-5---5--5--5--5--|
B |5---5-5-5-5-5-5---5-5-5-5-5-|5---5-5-5-5-5---5--5--5--5--|

C#|--------------------------------|--------------------------------|
G#|--------------------------------|--------------------------------|
E |--------------------------------|--------------------------------|
B |7---7-7-7-7-7-0-----7---7-7-----|7---7-7-7-7-7-0-----7---7-7-----| X2
F#|5---5-5-5-5-5-0-----9---9-9-----|5---5-5-5-5-5-0-----9---9-9-----|
B |4---4-4-4-4-4-0-----------------|4---4-4-4-4-4-0-----------------|

Break
C#|----------------------|----------------------|
G#|----------------------|----------------------|
E |7---------7---5-------|7-----------7---------|
B |5---------5---5-------|5-----------7---------| X4
F#|6---------6---6-------|5-----------5---------|
B |----------------------|----------------------|

Solo Rythem
C#|----------------------------|----------------------------|
G#|----------------------------|----------------------------|
E |----------------------------|----------------------------|
B |5-5-5-5-5-5-5-5-5-5-5-5-5-5-|5-5-5-5-5-5-5-5-5-5-5-5-5-5-|
F#|5-5-5-5-5-5-5-5-5-5-5-5-5-5-|5-5-5-5-5-5-5-5-5-5-5-5-5-5-|
B |5-5-5-5-5-5-5-5-5-5-5-5-5-5-|5-5-5-5-5-5-5-5-5-5-5-5-5-5-|

C#|----------------------------|----------------------------|
G#|----------------------------|----------------------------|
E |----------------------------|----------------------------|
B |0-0-0-0-0-0-0-0-0-0-0-0-0-0-|0-0-0-0-0-0-0-0-0-0-0-0-0-0-| X2
F#|0-0-0-0-0-0-0-0-0-0-0-0-0-0-|0-0-0-0-0-0-0-0-0-0-0-0-0-0-|
B |0-0-0-0-0-0-0-0-0-0-0-0-0-0-|0-0-0-0-0-0-0-0-0-0-0-0-0-0-|

Bridge
C#|----------------------------|----------------------------|
G#|----------------------------|----------------------------|
E |----------------------------|----------------------6-----|
B |8---8-8-8-8-8-7---7-7-7-7-7-|8---8-8-8-8-8---7--8--5--8--|
F#|5---5-5-5-5-5-5---5-5-5-5-5-|5---5-5-5-5-5---5--5--5--5--|
B |5---5-5-5-5-5-5---5-5-5-5-5-|5---5-5-5-5-5---5--5--5--5--|

C#|--------------------------------|--------------------------------|
G#|--------------------------------|--------------------------------|
E |--------------------------------|--------------------------------|
B |7---7-7-7-7-7-0-----7---7-7-----|7---7-7-7-7-7-0-----7---7-7-----| X2
F#|5---5-5-5-5-5-0-----9---9-9-----|5---5-5-5-5-5-0-----9---9-9-----|
B |4---4-4-4-4-4-0-----------------|4---4-4-4-4-4-0-----------------|

Breakdown
C#|--------------------------------|--------------------------------|
G#|--------------------------------|--------------------------------|
E |--------------------------------|--------------------------------|
B |3-5-5-5---3-5-8-8-8-8---3-5-5-5-|---6-5-5-6-5-5---6--------------| X2
F#|3-5-5-5---3-5-8-8-8-8---3-5-5-5-|---6-5-5-6-5-5---5--------------|
B |3-5-5-5---3-5-8-8-8-8---3-5-5-5-|---6-5-5-6-5-5------------------|

C#|--------------------------------|--------------------------------|
G#|--------------------------------|--------------------------------|
E |--------------------------------|--------------------------------|
B |--------------------------------|--------------------------------|
F#|--------------------------------|--------------------------------|
B |--------------------------------|--------------------------------|

Outro
C#|--------------------------------|--------------------------------|
G#|--------------------------------|--------------------------------|
E |--------------------------------|------------------------2-2-2-2-|
B |0-2-2-0-2-2-0-2---0-2-0-2-5-2-0-|0-2-2-0-2-2-0-2---0-2-0-3-3-3-3-|
F#|0-2-2-0-2-2-0-2---0-2-0-2-5-2-0-|0-2-2-0-2-2-0-2---0-2-0-2-2-2-2-|
B |0-2-2-0-2-2-0-2---0-2-0-2-5-2-0-|0-2-2-0-2-2-0-2---0-2-0---------|

C#|--------------------------------|--------------------------------|
G#|--------------------------------|--------------------------------|
E |--------------------------------|--------------------------------|
B |0-2-2-0-2-2-0-2---0-2-0-2-5-2-0-|0-2-2-0-2-2-0-2h3---2---0---2---|
F#|0-2-2-0-2-2-0-2---0-2-0-2-5-2-0-|0-2-2-0-2-2-0-2h3---2---0---2---|
B |0-2-2-0-2-2-0-2---0-2-0-2-5-2-0-|0-2-2-0-2-2-0-2h3---2---0---2---|

************************************

| /   slide up
| \   slide down
| h   hammer-on
| p   pull-off
| ~   vibrato
| +   harmonic
| x   Mute note
| b   Bend
| pb  Pre-bend
| br  Bend release
| pbr Pre-bend release
| brb Bend release bend

************************************

            
            
Suggest correction
Creating personal tab
Creating personal tab
You can edit any tab online and save it as your Personal.

You can edit, replace or remove any tab part or add personal notes – all changes will be seen only by you.

Personal tabs can be accessed anytime from any device, even offline.
Learn more »
Give kudos to tab author, rate the tab!
1 2 3 4 5
comments
print report bad tab
guest
You may want to rate the tab now too:
select rating
Wanna post a correction for this tab? Suggest correction