Oops, an error
Loading. Please wait.

Amar Poth Chola intro tab

version 1
version 1

Intro

Interactive

by Artcell
3,388 views 3 this week
2 commentsread comments
1 2 3 4 5
1 last vote to show rating
add to favorites
×
Save as Personal and add changes to this tab that will be seen only by you. Learn more ›
×
You can save this tab as Personal to edit and correct it or add notes. All changes will be seen only by you. Learn more »
launch autoscroll
font size
0
reset
how to read this tab
guitar tuner
edit
Autoscroll
slow
fast
+/-
esc
set tempo
stop
Intro Of Amar Poth Chola
By Me-----Tanvir Ahmed Khan
E-mail:tanvirahmed7092@yahoo.com

Tune-Half step down.

E-3-----5-----3-----2-----3---------------------| 
B---3-----3-----3-----3-----3-------------------|
G-----0-----0-----0-----0----------------------|
D------------------------------------------|
A------------------------------------------|
E-3-----------------------------------------|

E-3-----5-----3-----2-----3---------------------| 
B---3-----3-----3-----3-----3-------------------|
G-----0-----0-----0-----0----------------------|
D------------------------------------------|
A-3-----------------------------------------|
E------------------------------------------|

E-3-----5-----3-----2-----3---------------------| 
B---3-----3-----3-----3-----3-------------------|
G-----0-----0-----0-----0----------------------|
D------------------------------------------|
A-2-----------------------------------------|
E------------------------------------------|

E-3-----5-----5-----2-----3---------------------| 
B---3-----3-----5-----3-----3-------------------|
G-----0-----0-----0-----0----------------------|
D-------------0-----------------------------|
A-3-----------------------------------------|
E------------------------------------------|

Artcell

            
            
Suggest correction
Creating personal tab
Creating personal tab
You can edit any tab online and save it as your Personal.

You can edit, replace or remove any tab part or add personal notes – all changes will be seen only by you.

Personal tabs can be accessed anytime from any device, even offline.
Learn more »
Give kudos to tab author, rate the tab!
1 2 3 4 5
comments
print report bad tab
2 comments total.
+1 reply
nahidofhonor 176 Apr 27, 2014 08:19 AM

Please dont post such amateur tabs...

-1 reply
Tanvir Ahmed 232 Apr 28, 2014 04:38 AM

this was my first tab bro..for the beginner...its nt the main tab

guest
You may want to rate the tab now too:
select rating
Wanna post a correction for this tab? Suggest correction