Oops, an error
Loading. Please wait.

Dance bass

19 views 1 this week
no commentswrite comment
1 2 3 4 5
3 more votes to show rating
add to favorites
×
Save as Personal and add changes to this tab that will be seen only by you. Learn more ›
×
You can save this tab as Personal to edit and correct it or add notes. All changes will be seen only by you. Learn more »
launch autoscroll
font size
0
reset
guitar tuner
edit
Autoscroll
slow
fast
+/-
esc
set tempo
stop
-------------------------------------------------------------------
                            Artist - Arthur Brown
                           ************************
                                Song - Dance
                               **************
                      Album - Chisholm In My Bossom (1977)
                     **************************************
                            Tabbed By - Ayreon77
                           **********************
-------------------------------------------------------------------
Tuning = Standard             


G|--------------------|-------------------|
D|-----------7-5--s---|-------------------|
A|---------7-----7\-3-|-----------7-5-----|
E|-5--5-8-------------|-0--0-3--7-----7-3-|X4


------------------------
00:32
  (Aaahhhhhhh) 
  (Aaahhhhhhh)
  Dance (Aaahhhhhhh)          
G|--------------------|-------------------|
D|-----------7-5--s---|-------------------|
A|---------7-----7\-3-|-----------7-5-----|
E|-5--5-8-------------|-0--0-3--7-----7-3-|X3


00:55
VERSE 1
********
Won't you dance with us for just a moment, come on. Dance with us around the spinning floor
G|--------------------|----------------------------|-------------------|-------------------|
D|-----------7-5--s---|-----------7-5--s-----------|-------------------|-------------------|
A|---------7-----7\-3-|---------7-----7\-3---------|-----------7-5-----|-----------7-5-----|
E|-5--5-8-------------|-5--5-8---------------------|-0--0-3--7-----7-3-|-0--0-3--7-----7-3-|

We can have such very good times together.          Now we'll be forever more
G|--------------------|----------------------------|-------------------|-------------------|
D|-----------7-5--s---|-----------7-5--s-----------|-------------------|-------------------|
A|---------7-----7\-3-|---------7-----7\-3---------|-----------7-5-----|-----------7-5-----|
E|-5--5-8-------------|-5--5-8---------------------|-0--0-3--7-----7-3-|-0--0-3--7-----7-3-|


------------------------
01:26
CHORUS
*******
Dance (Aaahhhhhhh)
      I really do believe there's something in your eyes
G|---------------------------------------------s-----------|
D|--------12--12-10-11-12---------------7--7--7\10-7---5-7-|
A|---------------------------------------------------------|
E|-10--10------------------10--8--5--5---------------------|

  That makes me want to give away my parasol
G|---------------------------------------------------------------------|
D|--------------------------------------------------7--7-------------5-|
A|-----7----7----7----7----7----7----7----3---------------3--5--7--7---|
E|--------------------------------------------5--5---------------------|

Dance (Aaahhhhhhh)
      I will reach up and turn on this sun at night
G|---------------------------------------------------|
D|--------12--12-10-11-12----------------------------|
A|-------------------------10-11-12-------------8----|
E|-10--10----------------------------10---10-10----5-|

  With your love to guide me to my door
G|-----------------------------------------------|
D|-------s---------------------------------------|
A|----2--\--7----7----7----7----7----7----7----7-|
E|-5---------------------------------------------|


G|------------------------|------7--7-5-6-7-------|------9--9-7-8-9------s-|---------------|
D|------------------------|-----------------5-6-7-|-----------------7-8-9\-|---------------|
A|---------------------12-|-5--5------------------|-7--7-------------------|---------------|
E|-5--5-8--8-10--10-12----|-----------------------|------------------------|-5--5--5--5--5-|


------------------------
02:09
BREAK
******
G|--------------------|-------------------|
D|-----------7-5--s---|-------------------|
A|---------7-----7\-3-|-----------7-5-----|
E|-5--5-8-------------|-0--0-3--7-----7-3-|X2


------------------------
02:24
VERSE 2
********
  Ahhh let your body's go inside the music.         Body's like to feel there alive 
G|--------------------|----------------------------|-------------------|---------------------|
D|-----------7-5--s---|-----------7-5--s-----------|-------------------|---------------------|
A|---------7-----7\-3-|---------7-----7\-3---------|-----------7-5-----|-----------7-5-------|
E|-5--5-8-------------|-5--5-8---------------------|-0--0-3--7-----7-3-|-0--0-3--7-----7-5-3-|

  Now you've found him nows the times too loose it. Flowing, glowing, growing all the time
G|--------------------|----------------------------|-------------------|-------------------|
D|-----------7-5--s---|-----------7-5--s-----------|-------------------|-------------------|
A|---------7-----7\-3-|---------7-----7\-3---------|-----------7-5-----|-----------7-5-----|
E|-5--5-8-------------|-5--5-8---------------------|-0--0-3--7-----7-3-|-0--0-3--7-----7-3-|


------------------------
02:55
CHORUS
*******
Dance (Aaahhhhhhh
      I've gotta resist what we could be
G|---------------------------------------------------------------|
D|--------12--12-10-11-12----------7--7--10--10------------------|
A|-------------------------8-9-10---------------12--10-11-12-----|
E|-10--10-----------------------------------------------------10-|

  Make love to the earth and sky
G|--------------------------------------------------------------|
D|--------------------------------s-----------------------10-12-|
A|-7----7----7----7----7----7----7\---3-------------------------|
E|---------------------------------------5--5-8--8-10--12-------|

  Let go and fill the fire of electricity
G|---------------------------------------------------|
D|--------12--12-10-11-12----------------------------|
A|-------------------------10-11-12-------------8----|
E|-10--10----------------------------10---10-10----5-|

  From your touch to the blazing in your eyes
G|------------------------------------------------|
D|--------s---------------------------------------|
A|-----2--\--7----7----7----7----7----7----7----7-|
E|-5-5--------------------------------------------|


G|--------------------|------7--7-5-6-7-------|------9--9-7-8-9-----------|-----------------------|
D|--------------10-12-|-----------------5-6-7-|-----------------7-8-9---s-|-----------------------|
A|--------------------|-5--5------------------|-7--7------------------10\-|-----------------------|
E|-5--8--10--12-------|-----------------------|---------------------------|-5-5-5--5-5-5-5--5-5~~-|


------------------------
00:36
BREAK
****** Repeat this until the end of the song. And Fade Out................
G|--------------------|-------------------|
D|-----------7-5--s---|-------------------|
A|---------7-----7\-3-|-----------7-5-----|
E|-5--5-8-------------|-0--0-3--7-----7-3-|



ENJOY.................

            
            
Suggest correction
Creating personal tab
Creating personal tab
You can edit any tab online and save it as your Personal.

You can edit, replace or remove any tab part or add personal notes – all changes will be seen only by you.

Personal tabs can be accessed anytime from any device, even offline.
Learn more »
Give kudos to tab author, rate the tab!
1 2 3 4 5
comments
print report bad tab
guest
You may want to rate the tab now too:
select rating
Wanna post a correction for this tab? Suggest correction