Oops, an error
Loading. Please wait.

Quietly With Tact Tab

90 views 3 this week
no commentswrite comment
1 2 3 4 5
excellent!
x 7
add to favorites
launch autoscroll
font size
0
reset
how to read this tab
guitar tuner
Tab Pro tools
  • play this tab
  • loop segment
  • change instrument
  • show fretboard
  • metronome
×
Best way to learn
"Quietly With Tact"
Autoscroll
slow
fast
+/-
esc
set tempo
stop
Contributor
Difficulty
intermediate
                                Artist - Arthur Brown
                               -----------------------
                               Song - Quietly With Tact
                              --------------------------
                                    Album - Dance
                                   ---------------  

Intro
------
G - D - F# - G - Em - G - A

Verse 1
--------
 G                   D
Full moon hung in a cloudy sky
 F#                  G
Asking questions of where, for and why
 Em                         G                    A
Answers that still have no meaning, to us passes by - -  
 G                        D
Stiring at her through a party scene
F#                          G
So scared of touching that elusive dream
 Em                    G                   A
Feelings that seem to painful to us passes by

Chorus
------
  Bm                      F#
A blindness that comes so quietly with tact
 G                     D
Pretending to have no lack
Em                        G
Of sight which paints so well
              A            C#
A feeling of contentment. (In a moment)
D           F         C        Am
All will be black and our only way back
Em      Bm
Will be gone 
D              F#
lost with this song


SOLO 1
-------
Chords through solo
G - D - F# - G - Em - G - A 
Bm - F# - G - D - Em - G - A

Guitar 1
[-------------------|----------------|-------------------------------------]
[--------7----------|----------------|---brp--------brp--------------------]
[---h--6---9-6---7--|---s----7-7-7---|--9--7-------9--7--------------------]
[--7-8---------8----|--5\9-----------|-------9-----------9-----------------]
[-------------------|----------------|-------------------------------------]
[-------------------|----------------|-------------------------------------]
|                                                                          |
Guitar 2                                                                   |
[-------------------|----------------|--brp---------brp--------------------]
[-------------------|---s---15-15-15-|-17--15------17--15------------------]
[-------------------|-12\16----------|-------16----------16----------------]
[-------------------|----------------|-------------------------------------]
[-------------------|----------------|-------------------------------------]
[-------------------|----------------|-------------------------------------]


Guitar 1
[----------------------------------------]
[---s------------------------------------]
[--7\9--9--9-----------------------------]
[----------------7--7-7------------------]
[---------------------------7--7-7-------]
[------------------------------------5---]
|                                        |
Guitar 2                                 |
[----------------------------------------]
[-15\17-17-17----------------------------]
[---------------14-14-14-----------------]
[--------------------------14-14-14------]
[------------------------------------12--]
[----------------------------------------]


Guitar 1
[-----------------------------------|-------------------------------]
[--7--------------------------------|---h-h---7---------------------]
[----9-7----------------h--7--9--6--|--6-7-9-----9--7--6--7--9--7---]
[---------9-7------h---7-9----------|-------------------------------]
[-------------9---7-9---------------|-------------------------------]
[-----------------------------------|-------------------------------]
|                                                                   |
Guitar 2                                                            |
[-14--------------------------------|---h--h--14--------------------]
[---17-15---------------h--15-17-14-|-14-15-17---17-15-14-15-17-15--]
[--------16-14-----h--14-16---------|-------------------------------]
[-------------16-14-16--------------|-------------------------------]
[-----------------------------------|-------------------------------]
[-----------------------------------|-------------------------------]


Guitar 1
[---------------------------------------------------]
[---brp-------brp-------brp-------brp-------brp-----]
[--9--7------9--7------9--7------9--7------9--7-----]
[-------9---------9---------9---------9----------9--]
[---------------------------------------------------]
[---------------------------------------------------]
|                                                   |
Guitar 2                                            |
[---brp-------brp-------brp-------brp------brp------]
[--17-15-----17-15-----17-15-----17-15----17-15-----]
[--------16--------16--------16--------16-------16--]
[---------------------------------------------------]
[---------------------------------------------------]
[---------------------------------------------------]


Guitar 1
[-----------------------------------------]
[-----------------------------------------]
[---------------------6--6-6----7--9--7---]
[------------7--7-7-----------------------]
[--7--7-7---------------------------------]
[-----------------------------------------]
|                                         |
Guitar 2                                  |
[-----------------------------------------]
[---------------------14-14-14--15-17-15--]
[-----------14-14-14----------------------]
[-14-14-14--------------------------------]
[-----------------------------------------]
[-----------------------------------------]


Verse 2
--------
 G                  D
(He must go try to touch)
     F#                G
That moon in a cloudy sky
 Em                   G                     A
taking the chance to reach up to it not ask why
 G                   D
Holding her hand in fearful rhyme
 F#                       G      
Touching her depth's and frying to time
 Em                   G                    A
Feelings that are so painful to us make us strong ahhh


Chorus
------
  Bm                    F#
A meaning that comes so quietly with tact
 G                     D
Forcing us to have no lack
Em                        G                  A       C#
Of sight which paints so well the feeling of being. (in a moment)
D           F         C        Am
All will be white and our only bright lights 
Em      Bm
Will be within
 D             F#
(Some with his skin)
 G      D     F#    G
Ahhhh  Ahhhh Ahhhh Ahhhh
 Em     G     A
Ahhhh  Ahhhh Ahhhh
 
SOLOS 2
-------
G - D - F# - G - Em - G - A 
Bm - F# - G - D - Em - G - A

Guitar 1
[---------------------------|---------------------12-12--17-17--12-12------]
[---------------------------|---------------10-10---------------------10-10]
[----7-6--------------------|----------9-9---------------------------------]
[--9-----8-9----------------|------7-7-------------------------------------]
[------------10-9---7-5-7-9-|--7-7-----------------------------------------]
[---------------------------|----------------------------------------------]

Guitar 1
[----------------brp----------17-----|-----------14---------------]
[----s---15-17--17--15----15-----15--|----s---14----17-14--17-15--]
[--12\16---------------16------------|--13\15---------------------]
[------------------------------------|----------------------------]
[------------------------------------|----------------------------]
[------------------------------------|----------------------------]

Guitar 1
[---brp--------brp--------brp--------brp-------]
[--17--15-----17--15-----17--15-----17--15-----]
[---------16---------16---------16---------16--]
[----------------------------------------------]
[----------------------------------------------]
[----------------------------------------------]

Guitar 1
[-----------------------------------]
[--15-17----------------------------]
[--------14-16----------------------]
[---------------14-16---------------]
[---------------------12-14------s--]
[---------------------------12-14\--]

Guitar 1                                     Rake
[------------------------------------------|-------------------------------]
[----p-------------------------------------|-----12---------h--p-----------]
[--16-14---p-----h------------------h------|---12---14-12-11-12-12---------]
[--------16-14-12-14----------h---12-14-11-|-12--------------------14-12---]
[-----------------------h---12-14----------|-------------------------------]
[---------------------12-14----------------|-------------------------------]


Guitar 1
[---------------------------------------------------]
[---brp-------brp-------brp-------brp-------brp-----]
[--9--7------9--7------9--7------9--7------9--7-----]
[-------9---------9---------9---------9----------9--]
[---------------------------------------------------]
[---------------------------------------------------]
|                                                   |
Guitar 2                                            |
[---------------------------------------------------]
[---------------------------brp----------brp--------]
[--------------------7-9-7--9--7---7-9---9--7---7-9-]
[--------------------------------9------------9-----]
[---------------------------------------------------]
[---------------------------------------------------]


Guitar 1
[-------------------12--12-12-----------|----s----------------------------]
[---------10--10-10-----------10--10-10-|--10\12---10-12-10-10------------]
[--9--9-9-------------------------------|---------------------------------]
[---------------------------------------|---------------------------------]
[---------------------------------------|---------------------------------]
[---------------------------------------|---------------------------------]

                                                                        
Guitar 1                                                                  
[---h--p-------------------------------|-----------------------------------]
[--7-10-7---7----brp----------h---h----|---------rbp--------------rbp------]
[---------9---9--9--7----7---7-9-7-9-9-|--s--7-9-9--7-----s--7--9-9--7-----]
[----------------------9---9-----------|-7\9----------9--7\9-----------9---]
[--------------------------------------|-----------------------------------]
[--------------------------------------|-----------------------------------]
|                                                                          |
Guitar 2                                                                   |
[----------------------------b--b--b---------------------------------------]
[---------------------------15-15-15------s-------bp---------17------------]
[------------------------------------14-14\16-14-16-14-14-14----14-16------]
[---------------------------------------------------------------------14-16]
[--------------------------------------------------------------------------]
[--------------------------------------------------------------------------]


Guitar 1
[---------------------12--12-12-12-|-14-10----------------brp--------------]
[----------10--10-10---------------|-------12--10-12-10--12--10------------]
[--9--9-9--------------------------|----------------------------11-11------]
[----------------------------------|---------------------------------------]
[----------------------------------|---------------------------------------]
[----------------------------------|---------------------------------------]
|                                                                          |
Guitar 2                                                                   |
[--------------------|-----------------------------------------------------]
[----------------17--|-------------------------12-10-7---brp---------------]
[-------------14-----|----------------------------------9---7----7---------]
[----------16--------|-----------------------------------------9-----------]
[--------------------|-----------------------------------------------------]
[--------------------|-----------------------------------------------------]


Guitar 1       brp              b  b  b    h  p
[---brp-------12--10----10--|--17-17-17--14-17-14----14-----b--brp-------]
[--12--10------------12-----|---------------------17----17-17-17--15-----]
[---------11----------------|----------------------------------------16--]
[---------------------------|--------------------------------------------]
[---------------------------|--------------------------------------------]
[---------------------------|--------------------------------------------]
|                                                                        |
Guitar 2                                                                 |
[-------p----brp--------------|---------|--------------------------------]
[-b-7-10-7--10--7----brp------|-brp-----|----7-brp------brp------brp-----]
[-9---------------9--9--7---7-|-9--7----|--9---9--7---7-9--7---7-9----7--]
[-------------------------9---|------9--|-----------9--------9------9----]
[-----------------------------|---------|--------------------------------]
[-----------------------------|---------|--------------------------------]


Guitar 1
[----------------------------------|---------------------------------------]
[--17-15---------------------rb----|--17-15---------------------rb---------]
[---------16-14----14-14-16-16--14-|---------16-14----14-14-16-16--14------]
[---------------16-----------------|---------------16----------------------]
[----------------------------------|---------------------------------------]
[----------------------------------|---------------------------------------]
|                                                                          |
Guitar 2                                                                   |
[-----------------------12-12-12-------|-----------------------------------]
[-----------10--10-10--------------10--|-----------------------------------]
[--9--9-9------------------------------|--9--9-9---------------------------]
[--------------------------------------|-----------7--7--------------------]
[--------------------------------------|-----------------7--7-7------------]
[--------------------------------------|--------------------------5--------]


Guitar 1
[------------------------------------------------------------14------------]
[--17-15---------------------rb-----------------------15--17----17---------]
[---------16-14----14-14-16-16--14-----14-16-14----14--------------16------]
[---------------16------------------16----------16--------------------14---]
[--------------------------------------------------------------------------]
[--------------------------------------------------------------------------]
|                                                                          |
Guitar 2                                                                   |
[-----------------------12-12-12-------|-----------------------------------]
[-----------10--10-10--------------10--|-----------------------------------]
[--9--9-9------------------------------|--9--9-9---------------------------]
[--------------------------------------|-----------7--7--------------------]
[--------------------------------------|-----------------7--7-7------------]
[--------------------------------------|--------------------------5--------]


Great Tune Enjoy......  
comments
print report bad tab
I want to post or [tab]
guest
You may want to rate the tab now too:
select rating
Please do not post tabs as comments. Select "correction" instead!