Oops, an error
Loading. Please wait.

Abertura Tab

506 views 3 this week
no commentswrite comment
1 2 3 4 5
please rate
add to favorites
launch autoscroll
font size
0
reset
how to read this tab
guitar tuner
Autoscroll
slow
fast
+/-
esc
set tempo
stop
Help us to improve Ultimate-Guitar.com Take our survey!
×
Author
Arthur Verocai
Abertura from "Encore"
Tabbed by Almir Nametak, July 2009
mokra@starmo.co.uk


This is my interpretation of this beautiful song.


1.

E---3---1-8---6--------6---4--------------------------------4---2--------|
B------1-1---6-6-6---4----4-4-4---2-4---2----4-4----4-4---2----2--2---0--|
G-----1-----6-------6-6--4-------4-4---3-3--3-3----2----1-----2--2--2----|
D----1-----6-------4----4-------2-----2----4------1----4-4-4-4-----0-0-0-|
A-----------------6------------4-----3----2------3-----------------------|
E-----------------------------------------------1-----------------2------|

2.

E---2---0---------------------0123---3218---876-------6---654-------------|
B-----0---0---23---2-2-----2--------1------6---6---654---4---4---4324---4-|
G----0-0-0-4-4-44-4--33---3-3------1------6-------6-----4-------4------3--|
D-----------4--3-3--33-3-3---3----1------6-------4-----4-------2------2---|
A--------------4-----4--4-----------------------6-------------4------3----|
E---3-----4----------2----------------------------------------------------|

3.

E---------------------------------------0-6----5-5--353--5--353--5--353---|
B---321--1--1--1---1---010-03232------0---5-5-5-533----3-33----3-33----3--|
G-------2-2---2-2--2--2---3-2---5432-7-7-76--6---4-4----44-4----43-3----3-|
D------2---2-2---2-2-2------0-------6-----5------3-------3-------3--------|
A------------------3------------------------------------------------------|
E-----1-----1-------------------------------------------------------------|

4.

E---5---4--repeat from start and finish with 5.--------------------------|
B---22-2-2---------------------------------------------------------------|
G---3-3------------------------------------------------------------------|
D---2--------------------------------------------------------------------|
A------------------------------------------------------------------------|
E------------------------------------------------------------------------|

5.

E---3---1-0---1-5---3-2---38--6--5-----------1---------------------------|
B------1-1---0-0---3-3---2--6--5--4-3--1--1--1---------------------------|
G-----2-----1-----4-----3-----------2--2--3--2---------------------------|
D----3-----0-----5-----2------------3--2--3--3---------------------------|
A-----------------------------------1--0-----3---------------------------|
E---1-----0-----3-----2----5--3--1--------3--1---------------------------|
Suggest correction
What's this?
You can suggest a correction to this tab. Community and Mods will review your correction and vote to approve or reject it.
comments
We did not receive enough feedback on this tab! Please rate:
print report bad tab
1 2 3 4 5
guest
You may want to rate the tab now too:
select rating
Please do not post tabs as comments. Select "correction" instead!