Oops, an error
Loading. Please wait.

Dare To Believe chords

55 views 1 this week
no commentswrite comment
1 2 3 4 5
2 more votes to show rating
add to favorites
×
Save as Personal and add changes to this tab that will be seen only by you. Learn more ›
×
You can save this tab as Personal to edit and correct it or add notes. All changes will be seen only by you. Learn more »
launch autoscroll
font size
0
reset
transpose
0
reset
simplify chords
display chords
guitar tuner
edit
Autoscroll
slow
fast
+/-
esc
set tempo
stop
Author
Difficulty
Strumming
There is no strumming pattern for this song yet. and get +5 IQ
[Intro]

E*  A  x2

e|-----------0-----------2---4---4---2---0-----------------|
B|--------0-----0-----0----------------------4---2---0-----|
G|--1--2-----------2-------------------------------------2-|  x2
D|---------------------------------------------------------|
A|---------------------------------------------------------|
E|---------------------------------------------------------|



[Verse]
C#m                   A9
Not sure how to do this or where to begin
C#m                     A9
Caught up in the distance no one wins
C#m                     A9
I’m running right to you, stay where you are
F#m
I pray we make it
C#m             A9
I can’t remember, I can’t forget
C#m               A9
Where did I lose you in my head?
C#m                    A9
If there’s a chance now, to find what we lost
F#m
This time we’ll find a way
A9      Bm
Somehow, some day

[Chorus]
E                        A9
I dare to believe we’re gonna make it
C#m           Bm                E
We’ll find a place where we can shine like the stars
A9
Our chance we’ll take it
C#m               Bm
It’s far away but there’s a light
C#m          A9          E     A9      C#m     A9
I’ll wait for you tonight

[Verse]
C#m                    A9
The pictures and phrases in my mind
C#m             A9
All come to the surface over time
C#m                 A9
Nobody can stop this, like nothing at all
F#m
We’re automatic
C#m                 A9
Surrender the moment, bring it to life
C#m            A9
I see my reflection in your eyes
C#m            A9
Nothing can stop me from thinking of you
F#m
And every time I pray
A9       Bm
Sometime, someday

[Chorus]
E                        A9
I dare to believe we’re gonna make it
C#m           Bm                E
We’ll find a place where we can shine like the stars
A9
Our chance we’ll take it
C#m               Bm
It’s far away but there’s a light
C#m          A9          F#m
I’ll wait for you tonight

[Bridge]
               A9            F#m
Take this back to the start
              A9      Bm
Fix where it fell apart     

E  A9  E   A9

[Solo]

e|--2--4--4/5--4--2--0--2--0--4--2--0----------0/2--4--2--0------------------0----------------|
B|-------------------------------------------2--------------4--2--0------------4--2--0--------|
G|-------------------------------------2--4--------------------------2--1--2------------------|
D|--------------------------------------------------------------------------------------4--2--|
A|--------------------------------------------------------------------------------------------|
E|--------------------------------------------------------------------------------------------|


e|----0----------------0---------------0---------------0--2--2/4--|
B|--0----4--2--0-----0---4--2--0-----0---4--2--0--2--4------------|
G|-------------------------------1pb------------------------------|
D|---------------4pb----------------------------------------------|
A|----------------------------------------------------------------|
E|----------------------------------------------------------------|

[Chorus]
E                        A9
I dare to believe we’re gonna make it
C#m           Bm                E
We’ll find a place where we can shine like the stars
A9
Our chance we’ll take it
C#m               Bm
It’s far away but there’s a light
E                        A9
I dare to believe we’re gonna make it
C#m           Bm                E
We’ll find a place where we can shine like the stars
A9
Our chance we’ll take it
C#m               Bm
It’s far away but there’s a light
C#m          A9          C#m
I’ll wait for you tonight
             A9          E
I’ll wait for you tonight

[Outro]

(E) A9  E  A9


*******************
*    single strum
/    slideup
pb   prebend
*******************

            
            
Suggest correction
Creating personal tab
Creating personal tab
You can edit any tab online and save it as your Personal.

You can edit, replace or remove any tab part or add personal notes – all changes will be seen only by you.

Personal tabs can be accessed anytime from any device, even offline.
Learn more »
Give kudos to tab author, rate the tab!
1 2 3 4 5
comments
print report bad tab
guest
You may want to rate the tab now too:
select rating
Wanna post a correction for this tab? Suggest correction