Oops, an error
Loading. Please wait.

Kids Again chords

version 1
version 1

Whole song

6,046 views 162 this week
2 commentsread comments
1 2 3 4 5
x 15
add to favorites
×
Save as Personal and add changes to this tab that will be seen only by you. Learn more ›
×
You can save this tab as Personal to edit and correct it or add notes. All changes will be seen only by you. Learn more »
launch autoscroll
font size
0
reset
transpose
0
reset
display chords
guitar tuner
edit
Autoscroll
slow
fast
+/-
esc
set tempo
stop
Strumming
There is no strumming pattern for this song yet. and get +5 IQ
Please Rate!

[Intro] 
repeat for verses and chorus

  G     D       C        G          Am    G       Bm       C
e|--3-x-2---2-x-0-|--0-x-----------|----------------|------0-0-------|
B|--3-x-3---3-x-1-|--1-x-3-3---x---|--1-x-0---0-x-3-|--3-x-1-1-------|
G|----------------|------0-0---x---|--2-x-0---0-x-4-|--4-x-----------|
D|----------------|----------------|----------------|--------------0-|
A|------0---0-x-3-|--3-x-----------|0-------------2-|--2-x-3-3-------|
E|3---x-----------|------3-3---x---|----x-3---3-x---|----------------|
  1 & 2 & 3 & 4 &  1 & 2 & 3 & 4 &  1 & 2 & 3 & 4 &  1 & 2 & 3 & 4 &

  G     D       C        G          Am    G       D        G
e|--3-x-2---2-x-0-|--0-x-----------|----------------|----------------|
B|--3-x-3---3-x-1-|--1-x-3-3---x---|--1-x-0---0-x---|----------------|
G|----------------|------0-0---x---|--2-x-0---0-x-2-|--2-x-0-0-----0-|
D|2---------------|----------------|--------------0-|--0-x-0-0-0h2---|
A|------0---0-x-3-|--3-x-----------|0-------------0-|--0-x-----------|
E|3---x-----------|------3-3---x---|----x-3---3-x---|------3-3-------|
  1 & 2 & 3 & 4 &  1 & 2 & 3 & 4 &  1 & 2 & 3 & 4 &  1 & 2 & 3 & 4 &

   
[Verse] 
         G    D
I know a girl
C                      G             Am    G
Who likes to drink her coffee black
         Bm               C                  G    D
'Cause sugar no she don't got time for that
           C          G                Am
Leaves her desires at the welcome mat
     G         D   G
When she walks in

             G  D
And I know a boy
C                     G          Am    G
Who likes to keep his burner on
       Bm                C                    G     D
He's always running with no one to keep warm
          C                  G                Am
It's like he's flirting with the smoke alarm
    G       D       G
His fire is fading


[Chorus]
             G      D
But still we laugh, we cry
C           G
We fall, we get high
     Am        G
Just like we were kids
     Bm      C
Just like we were kids
             G     D
And when I, I'm feeling small
    C              G
You get me through it all
     Am        G
Just like we were kids
     D           G
Just like we were kids again


[Instrumental]
G  D  C  G  Am  G  D  G


[Verse]
         G   D
I know a girl
C                    G            Am   G
Who's never tried to settle down
        Bm           C                G D
She has a loneliness just like a crown
             C              G
But when she smiles all the kings will
    Am          G     D   G
bow down, down, down

             G   D
And I know a boy
C                  G              Am   G
Who's broken every vow he's made
         Bm           C             G   D
Who's spoken every coward’s phrase
       C               G
But he can listen like a rainy day
    Am       G   D
And drown it out


[Chorus]
             G      D
But still we laugh, we cry
   C            G
We fall, we get high
     Am        G
Just like we were kids
     Bm      C
Just like we were kids
             G     D
And when I, I'm feeling small
    C              G
You get me through it all
     Am        G
Just like we were kids
     D           G
Just like we were kids again


[Interlude]
G  D  C  G

     Am        G
Just like we were kids
     D           G
Just like we were kids again

G D

     C         G
Just like we were kids
     Am        G
Just like we were kids
     D           G
Just like we were kids again


But still we

  G           D               C                G
e|3-----------2---------------0---|--------------------------------|
B|3-----------3---------------5---|--6/8------\3-----------3-------|
G|----0---------------0-------5---|--------------------0-------0---|
D|--------0---------------0---5---|--------------------------------|
A|--------------------------------|--------------------------------|
E|--------------------------------|--------------------------------|
  Laugh,      we  cry     we  fall     we      get high,       Just
  1   &   2   &   3   &   4   &    1   &   2   &   3   &   4   &
 
  Am          G               Bm               C
e|--------------------------------|----2-------0-----------0---2---|
B|1-----------0---------------3---|--------------------------------|
G|----2---------------0-----------|--------------------------------|
D|--------2---------------0-------|--------------------------------|
A|0---------------------------2---|------------3-------------------|
E|------------3-------------------|--------------------------------|
 like we  were    kids   Just like     we    were kids And when I
  1   &   2   &   3   &   4   &    1   &   2   &   3   &   4   &
 
  G           D               C                G
e|3-----------2---------------0---|--------------------------------|
B|3-----------3---------------5---|--6/8------\3-----------3-------|
G|----0---------------0-------5---|--------------------0-------0---|
D|--------0---------------0---5---|--------------------------------|
A|--------------------------------|--------------------------------|
E|--------------------------------|--------------------------------|
      I’m feeling small   you get    me through it all         Just
  1   &   2   &   3   &   4   &    1   &   2   &   3   &   4   &

  Am          G               D                G  
e|--------------------------------|-----------^3-------------------|
B|1-----------0-------0h1p0-------|-----------^3-------------------|
G|----2---------------------0-----|-----------^0---------------0---|
D|--------2-----------------------|-----------^0-------0-h-2-------|
A|0-------------------------------|----0h2h5--^2-------------------|
E|------------3---------------0h3-|0h3--------^3-------------------|
 like we  were    kids   Just like     we    were kids but still we
  1   &   2   &   3   &   4   &    1   &   2   &   3   &   4   & 

[Chorus] 
G      D
laugh, we cry
C           G
We fall, we get high
     Am        G
Just like we were kids
     Bm      C
Just like we were kids
             G     D
And when I, I'm feeling small
    C              G
You get me through it all
     Am        G
Just like we were kids


[Outro]
     D           G
Just like we were kids again

G  D  C  G

     Am        G
Just like we were kids
     D           G
Just like we were kids again

G D

     C         G
Just like we were kids
     Am        G
Just like we were kids
     D           G
Just like we were kids again

G  D  C  G

     Am        G
Just like we were kids
     D           G
Just like we were kids again

G D

     C         G
Just like we were kids
     Am        G
Just like we were kids
     D           G
Just like we were kids again
             G      D
But still we laugh, we cry
C           G
We fall, we get high
     Am        G
Just like we were kids
     Bm      C
Just like we were kids
             G     D
And when I, I'm feeling small
    C              G
You get me through it all
     Am        G
Just like we were kids
     D           G
Just like we were kids again
     D           G
Just like we were kids


******************************************

| x  Dead note (tambourine also plays here)
| h  Hammer-on
| p  Pull-off
| /  Slide up
| \  Slide down
| ^  Strum up 

******************************************
Suggest correction
Creating personal tab
Creating personal tab
You can edit any tab online and save it as your Personal.

You can edit, replace or remove any tab part or add personal notes – all changes will be seen only by you.

Personal tabs can be accessed anytime from any device, even offline.
Learn more »
comments
print report bad tab
2 comments total.
0 reply
ianclark7 582 May 31, 2016 12:32 PM

Please Rate!

0 reply
guillermopeitto 10,339 Jun 08, 2016 09:24 AM

Realy good tab !!!!, well done, congrats !!!

guest
You may want to rate the tab now too:
select rating
Wanna post a correction for this tab? Suggest correction