Oops, an error
Loading. Please wait.

Leavin tab

391 views 1 this week
no commentswrite comment
1 2 3 4 5
x 4
add to favorites
×
Save as Personal and add changes to this tab that will be seen only by you. Learn more ›
×
You can save this tab as Personal to edit and correct it or add notes. All changes will be seen only by you. Learn more »
launch autoscroll
font size
0
reset
how to read this tab
guitar tuner
edit
Autoscroll
slow
fast
+/-
esc
set tempo
stop
Author
Difficulty
Song: Leavin'
Artist: Artist Vs Poet
Album: Medicine


Note: Most of this song is played palm muted. I didn't denote it anywhere in the tab.
      I like to play around with how/where I palm mute.


[Intro]

e|---------------------------------------------------------------------------|
B|-------1-------------------------------------------------------------------|
G|---0h2---------------------------------------------------------------------|
D|--3---3---3---2-2p0-0------------------------------------------------------|   x2
A|------------3-3-3--3-------------------------------------------------------|
E|---------------------------------------------------------------------------|

e|----------------------------0----------------------------------------------|
B|-------1----------------1-3---0-1-3p1--------------------------------------|
G|---0h2---------------------------------------------------------------------|   x1
D|--3---3---3---2-2p0-0------------------------------------------------------|
A|------------3-3-3--3----0--------------------------------------------------|
E|------------------------------3--------------------------------------------|


[Verse]

e|---------------------------------------------------------------------------|
B|-------1-------------------------------------------------------------------|
G|---0h2---------------------------------------------------------------------|   x2
D|--3---3---3---2-2p0-0------------------------------------------------------|
A|------------3-3-3--3-------------------------------------------------------|
E|---------------------------------------------------------------------------|
  I was walkin' with myself today
  I couldn't help but think about your face and I


e|----------------------------0----------------------------------------------|
B|-------1----------------1-3---0-1-3p1--------------------------------------|
G|---0h2---------------------------------------------------------------------|   x1
D|--3---3---3---2-2p0-0------------------------------------------------------|
A|------------3-3-3--3----0--------------------------------------------------|
E|------------------------------3--------------------------------------------|
  Always regret it cause I'm always forgetting 
  what the rest of the world looks like
 

e|---------------------------------------------------------------------------|
B|-------1-------------------------------------------------------------------|
G|---0h2---------------------------------------------------------------------|   x2
D|--3---3---3---2-2p0-0------------------------------------------------------|
A|------------3-3-3--3-------------------------------------------------------|
E|---------------------------------------------------------------------------|
  I grabbed my guitar and I made some sound
  Painted a picture and tried to leave you out

 
e|----------------------------0----------------------------------------------|
B|-------1----------------1-3---0-1-3p1--------------------------------------|
G|---0h2---------------------------------------------------------------------|  x1
D|--3---3---3---2-2p0-0------------------------------------------------------|
A|------------3-3-3--3----0--------------------------------------------------|
E|------------------------------3--------------------------------------------|
  But your persistence led to obstruct my vision 
  and I couldn't lay it down


[Chorus]
 
e|-----------------------------------------------------------3---------------|
B|-------1--------------------------1---------------------1--3---------------|
G|---0h2------------0----------0h2--------0--0--------0h2----0---------------|  x1
D|--3---3---3---0h2-----------3---3---3---2--0-------3---3---0---------------|
A|------------3--------------------------0-------------------2---------------|
E|------------------------------------------3----------------3---------------|
  I wasn't gonna write a song
  I wasn't gonna write a song about you
  I wasn't gonna write a song about you leavin'


[Verse]

e|---------------------------------------------------------------------------|
B|-------1-------------------------------------------------------------------|
G|---0h2---------------------------------------------------------------------|   x2
D|--3---3---3---2-2p0-0------------------------------------------------------|
A|------------3-3-3--3-------------------------------------------------------|
E|---------------------------------------------------------------------------|
 
e|----------------------------0----------------------------------------------|
B|-------1----------------1-3---0-1-3p1--------------------------------------|   x1
G|---0h2---------------------------------------------------------------------|
D|--3---3---3---2-2p0-0------------------------------------------------------|
A|------------3-3-3--3----0--------------------------------------------------|
E|------------------------------3--------------------------------------------|
  
e|---------------------------------------------------------------------------|
B|-------1-------------------------------------------------------------------|
G|---0h2---------------------------------------------------------------------|  x2
D|--3---3---3---2-2p0-0------------------------------------------------------|
A|------------3-3-3--3-------------------------------------------------------|
E|---------------------------------------------------------------------------|
  I drank a fifth and started counting sheep
  There were just as many as the days that you left me


e|----------------------------0----------------------------------------------|
B|-------1----------------1-3---0-1-3p1--------------------------------------|
G|---0h2---------------------------------------------------------------------|   x1
D|--3---3---3---2-2p0-0------------------------------------------------------|
A|------------3-3-3--3----0--------------------------------------------------|
E|------------------------------3--------------------------------------------|
  Been marking it down, I never lose count
  The bottles they don't ever lie


e|---------------------------------------------------------------------------|
B|-------1-------------------------------------------------------------------|
G|---0h2---------------------------------------------------------------------|   x2
D|--3---3---3---2-2p0-0------------------------------------------------------|
A|------------3-3-3--3-------------------------------------------------------|
E|---------------------------------------------------------------------------|
  So, I stumble to the keys and made some sound
  Played it decent then tried to shut you out


e|----------------------------0----------------------------------------------|
B|-------1----------------1-3---0-1-3p1--------------------------------------|
G|---0h2---------------------------------------------------------------------|   x1
D|--3---3---3---2-2p0-0------------------------------------------------------|
A|------------3-3-3--3----0--------------------------------------------------|
E|------------------------------3--------------------------------------------|
  And I don't know how but girl your melody came pouring out
  Came pouring out
  

[Chorus]
 
e|-----------------------------------------------------------3---------------|
B|-------1--------------------------1---------------------1--3---------------|
G|---0h2------------0----------0h2--------0--0--------0h2----0---------------|  x1
D|--3---3---3---0h2-----------3---3---3---2--0-------3---3---0---------------|
A|------------3--------------------------0-------------------2---------------|
E|------------------------------------------3----------------3---------------|
  I wasn't gonna write a song
  I wasn't gonna write a song about you
  I wasn't gonna write a song about you...


[Outro]

e|---0----0----0----3-----------------------------------------------------------------|
B|---1----1----1----3-----------------------------------------------------------------|
G|---2----2----0----0-----------------------------------------------------------------|    x2
D|---2----3----2----0-----------------------------------------------------------------|
A|---0---------3----2-----------------------------------------------------------------|
E|------------------3-----------------------------------------------------------------|
  Leaving in the middle of the night through the back door
  Leaving cause it's all you're ever doing anymore
  Leaving cause you're never going to find what you're looking for
  Leaving cause you want another song

e|---0----0----0----0----3----0----3------0--------------------------------------------|
B|---1----1----1----1----3----1----3------1--------------------------------------------|
G|---2----0----2----2----0----2----0------0--------------------------------------------|
D|---3----2----3----2----0----3----0------2--------------------------------------------|
A|--------3---------0----2---------2------3--------------------------------------------|
E|-----------------------3---------3---------------------------------------------------|
  I wasn't gonna write a song
  I wasn't gonna write a song about you
  I wasn't gonna write a song about you leavin'
  Cause it happens every time

e|---0----0----0----0----3----0----3---------------------------------------------------|
B|---1----1----1----1----3----1----3---------------------------------------------------|
G|---2----0----2----2----0----2----0---------------------------------------------------|
D|---3----2----3----2----0----3----0---------------------------------------------------|
A|--------3---------0----2---------2---------------------------------------------------|
E|-----------------------3---------3---------------------------------------------------|
  Could you show me where I went wrong?
  Oh, could you tell me cause I'm lost without you
  And I could put it in a song about you leavin'


************************************
| h   Hammer-on
| p   Pull-off
************************************
Suggest correction
Creating personal tab
Creating personal tab
You can edit any tab online and save it as your Personal.

You can edit, replace or remove any tab part or add personal notes – all changes will be seen only by you.

Personal tabs can be accessed anytime from any device, even offline.
Learn more »
comments
print report bad tab
guest
You may want to rate the tab now too:
select rating
Wanna post a correction for this tab? Suggest correction