Oops, an error
Loading. Please wait.

Runaway tab

version 2
version 2

Whole song

5,024 views 1 this week
1 commentread comment
1 2 3 4 5
x 4
add to favorites
×
Save as Personal and add changes to this tab that will be seen only by you. Learn more ›
×
You can save this tab as Personal to edit and correct it or add notes. All changes will be seen only by you. Learn more »
launch autoscroll
font size
0
reset
how to read this tab
guitar tuner
edit
Autoscroll
slow
fast
+/-
esc
set tempo
stop
Artist: Artist vs Poet
Album: Self-titled EP
Song: Runaway

Tab by: joseluis92

Tuning: Drop C#
C# G# C# F# A# D#

Actually, they play this half a step down
I watched their video and in the pre-chorus part
The lead guitarist was playing that part like this

D#|--------0------------------|
A#|----3-----3----------------|
F#|--0---0-----0--------------|

And the only way that could happen is by having those strings half a step down

So you can play it like this:

D# G# C# F# A# D#

And you’d have to move everything on the low E
Two frets to the left
In addition, you can play power chords that would normally be played
on the top three strings on the 2nd 3rd and 4th string from the
ceiling to the ground respectively...
That's how they play it

example
If you wanna play it like them, dont drop the low E string an entire
extra step and play these chords like this

D#|-------------------------------|
A#|-------------------------------|
F#|----------4-----------------2--|
C#|--9-------4---------7-------2--|
G#|--9-like--2----and--7-like--0--|
C#|--9-----------------7----------|


However, I find this song easier to play by playing
Barre power chords (how I tabbed it out) but its your choice

OH MAI GAWD, just play it like this:

--------------------------
| ACTUAL TAB STARTS HERE |
--------------------------
LEAD

D#|------------------------------|
A#|------------------------------|
F#|------------------------------|
C#|--5-X-X---------7---777-9-7-5-|     x2
G#|--5-X-X-5---5---7---777-9-7-5-|
C#|--5-X-X---7---7-7---777-9-7-5-|

D#|----------------------------|
A#|----------7-------10-8-7----|
F#|--7-9-7-9---9-7-------------|
C#|----------------7-----------|       x2
G#|----------------------------|
C#|----------------------------|

The first two times lead doesnt play

D#|------------------------------|
A#|------------------------------|
F#|------------------------------|
C#|--5-------7-7-7-7---777-9-7-5-|     x2
G#|--5-------5-5-7-7---777-9-7-5-|
C#|--5-----------7-7---777-9-7-5-|

D#|--------3-------------------|
A#|----3-----3-----------------|
F#|--0---0-----0---------------|
C#|----------------------------|
G#|----------------------------|
C#|----------------------------|

D#|--------0------------------|
A#|----3-----3----------------|
F#|--0---0-----0--------------|
C#|---------------------------|     x7
G#|---------------------------|
C#|---------------------------|

For the chorus, you can use either of these chords
Personally, i like the second way better
If you wanna play it the other way
Just switch each chord for the corresponding one

D#|---------|----------|--------|--------|
A#|------14-|-------15-|-----12-|-----10-|
F#|-18------|--19------|-16-----|-14-----|
C#|----=-11-|-----=-12-|----=-9-|----=-7-|
G#|-16------|--17------|-14-----|-12-----|
C#|---------|----------|--------|--------|

Play the first two bars twice

D#|---------------------------------------------------|
A#|---------------------------------------------------|
F#|--18-19-19-19---19-19-19----18-19-19-19---19-19-19-|
C#|---------------------------------------------------|    x2
G#|--16-17-17-17---17-17-17----16-17-17-17---17-17-17-|
C#|---------------------------------------------------|

D#|-----------------------------------------------|
A#|-----------------------------------------------|
F#|--18--18-18--18-18-18-18-\-14--14-14--14-14-14-|
C#|-----------------------------------------------|
G#|--16--16-16--16-16-16-16-\-12--12-12--12-12-12-|
C#|-----------------------------------------------|

D#|------------------------------------------------|
A#|------------------------------------------------|
F#|--18--18-18--18-18-18-18-/-19-\-16-16--16-16-16-|
C#|------------------------------------------------|
G#|--16--16-16--16-16-16-16-/-17-\-14-14--14-14-14-|
C#|------------------------------------------------|

D#|---------------------------------------------------|
A#|---------------------------------------------------|
F#|--18-19-19-19---19-19-19----18-19-19-19---19-19-19-|
C#|---------------------------------------------------|
G#|--16-17-17-17---17-17-17----16-17-17-17---17-17-17-|
C#|---------------------------------------------------|

D#|-----------------------------------------------|
A#|-----------------------------------------------|
F#|--18--18-18--18-18-18-18-\-14--14-14--14-14-14-|
C#|-----------------------------------------------|
G#|--16--16-16--16-16-16-16-\-12--12-12--12-12-12-|
C#|-----------------------------------------------|

D#|------------------------------|
A#|------------------------------|
F#|------------------------------|
C#|--5-------7-7-7-7---777-9-7-5-|     x4
G#|--5-------5-5-7-7---777-9-7-5-|
C#|--5-----------7-7---777-9-7-5-|

D#|--------3-------------------|
A#|----3-----3-----------------|
F#|--0---0-----0---------------|
C#|----------------------------|
G#|----------------------------|
C#|----------------------------|

D#|--------0------------------|
A#|----3-----3----------------|
F#|--0---0-----0--------------|
C#|---------------------------|     x7
G#|---------------------------|
C#|---------------------------|

Play the first two bars twice

D#|---------------------------------------------------|
A#|---------------------------------------------------|
F#|--18-19-19-19---19-19-19----18-19-19-19---19-19-19-|
C#|---------------------------------------------------|    x2
G#|--16-17-17-17---17-17-17----16-17-17-17---17-17-17-|
C#|---------------------------------------------------|

D#|-----------------------------------------------|
A#|-----------------------------------------------|
F#|--18--18-18--18-18-18-18-\-14--14-14--14-14-14-|
C#|-----------------------------------------------|
G#|--16--16-16--16-16-16-16-\-12--12-12--12-12-12-|
C#|-----------------------------------------------|

D#|------------------------------------------------|
A#|------------------------------------------------|
F#|--18--18-18--18-18-18-18-/-19-\-16-16--16-16-16-|
C#|------------------------------------------------|
G#|--16--16-16--16-16-16-16-/-17-\-14-14--14-14-14-|
C#|------------------------------------------------|

D#|---------------------------------------------------|
A#|---------------------------------------------------|
F#|--18-19-19-19---19-19-19----18-19-19-19---19-19-19-|
C#|---------------------------------------------------|
G#|--16-17-17-17---17-17-17----16-17-17-17---17-17-17-|
C#|---------------------------------------------------|

D#|-----------------------------------------------|
A#|-----------------------------------------------|
F#|--18--18-18--18-18-18-18-\-14--14-14--14-14-14-|
C#|-----------------------------------------------|
G#|--16--16-16--16-16-16-16-\-12--12-12--12-12-12-|
C#|-----------------------------------------------|

Play the following 2 bars twice, with the second bar being played
twice the second time around

D#|------------------------------------|
A#|------------------------------------|
F#|------------------------------------|
C#|--9-XX-XXX-XXX-XXX-7-XX-XXX-XXX-XXX-|
G#|--9-XX-XXX-XXX-XXX-7-XX-XXX-XXX-XXX-|
C#|--9-XX-XXX-XXX-XXX-7-XX-XXX-XXX-XXX-|

D#|----------------------------|
A#|----------------------------|
F#|----------------------------|
C#|--5-5-5---4-5-7-9-7---------|
G#|--5-5-5---4-5-7-9-7---------|
C#|--5-5-5---4-5-7-9-7---------|

D#|----------------------------|
A#|----------------------------|
F#|----------------------------|
C#|----------7-7-7-7-7~--------|
G#|--5-------7-7-7-7-7~--------|
C#|--5--x16--7-7-7-7-7~--------|
     *

Play the following two bars twice

D#|---------------------------------------------------|
A#|---------------------------------------------------|
F#|--18-19-19-19---19-19-19----18-19-19-19---19-19-19-|
C#|---------------------------------------------------|   x2
G#|--16-17-17-17---17-17-17----16-17-17-17---17-17-17-|
C#|---------------------------------------------------|

D#|-----------------------------------------------|
A#|-----------------------------------------------|
F#|--18--18-18--18-18-18-18-\-14--14-14--14-14-14-|
C#|-----------------------------------------------|
G#|--16--16-16--16-16-16-16-\-12--12-12--12-12-12-|
C#|-----------------------------------------------|

D#|---------------------|
A#|---------------------|
F#|--19-------18--------|
C#|---------------------|
G#|--17-------16--------|
C#|---------------------|

D#|------------------------------------------------|
A#|------------------------------------------------|
F#|--18--18-18--18-18-18-18-/-19-\-16-16--16-16-16-|
C#|------------------------------------------------|
G#|--16--16-16--16-16-16-16-/-17-\-14-14--14-14-14-|
C#|------------------------------------------------|

D#|---------------------------------------------------|
A#|---------------------------------------------------|
F#|--18-19-19-19---19-19-19----18-19-19-19---19-19-19-|
C#|---------------------------------------------------|
G#|--16-17-17-17---17-17-17----16-17-17-17---17-17-17-|
C#|---------------------------------------------------|

D#|-----------------------------------------------|
A#|-----------------------------------------------|
F#|--18--18-18--18-18-18-18-\-14--14-14--14-14-14-|
C#|-----------------------------------------------|
G#|--16--16-16--16-16-16-16-\-12--12-12--12-12-12-|
C#|-----------------------------------------------|

D#|----------------------------|
A#|----------------------------|
F#|----------------------------|
C#|--5-5-5---4-5-7-9-7---------|     x4
G#|--5-5-5---4-5-7-9-7---------|
C#|--5-5-5---4-5-7-9-7---------|

RHYTHM

D#|------------------------------|
A#|------------------------------|
F#|------------------------------|
C#|--5-X-X-X-7-7-7-7---777-9-7-5-|    x4
G#|--5-X-X-X-5-5-7-7---777-9-7-5-|
C#|--5-X-X-X-----7-7---777-9-7-5-|

D#|------------------------------|
A#|------------------------------|
F#|------------------------------|
C#|--5-------7-7-7-7---777-9-7-5-|    x4
G#|--5-------5-5-7-7---777-9-7-5-|
C#|--5-----------7-7---777-9-7-5-|

D#|----------------------------------|
A#|----------------------------------|
F#|----------------------------------|
C#|--5-----7-----9----2----7-7-7-7-7-|
G#|--5-----7-----9----2----7-7-7-7-7-|
C#|--5-----7-----9----2----7-7-7-7-7-|

D#|----------------------------|
A#|----------------------------|
F#|----------------------------|
C#|--5----7----7---------------|   x2
G#|--5-x8-5-x8-7-x16-----------|
C#|--5---------7---------------|

D#|----------------------------|
A#|----------------------------|
F#|----------------------------|
C#|--5----7----7----9----------|
G#|--5-x8-5-x8-7-x8-9-x8-------|
C#|--5---------7----9----------|

D#|----------------------------|
A#|----------------------------|
F#|----------------------------|
C#|--5-----4----7--------------|
G#|--5-x16-4-x8-7-x8-----------|
C#|--5-----4----7--------------|

D#|------------------------------|
A#|------------------------------|
F#|------------------------------|
C#|--5-------7-7-7-7---777-9-7-5-|    x4
G#|--5-------5-5-7-7---777-9-7-5-|
C#|--5-----------7-7---777-9-7-5-|

D#|----------------------------------|
A#|----------------------------------|
F#|----------------------------------|
C#|--5-----7-----9----2----7-7-7-7-7-|
G#|--5-----7-----9----2----7-7-7-7-7-|
C#|--5-----7-----9----2----7-7-7-7-7-|

D#|----------------------------|
A#|----------------------------|
F#|----------------------------|
C#|--5----7----7---------------|
G#|--5-x8-5-x8-7-x16-----------|
C#|--5---------7---------------|

D#|----------------------------|
A#|----------------------------|
F#|----------------------------|
C#|--5----7----7----9----------|    x2
G#|--5-x8-5-x8-7-x8-9-x8-------|
C#|--5---------7----9----------|

D#|----------------------------|
A#|----------------------------|
F#|----------------------------|
C#|--5-----4----7--------------|
G#|--5-x16-4-x8-7-x8-----------|
C#|--5-----4----7--------------|

Play the following two bars twice, with the second bar being played
twice the second time around

D#|------------------------------------|
A#|------------------------------------|
F#|------------------------------------|
C#|--9-XX-XXX-XXX-XXX-7-XX-XXX-XXX-XXX-|
G#|--9-XX-XXX-XXX-XXX-7-XX-XXX-XXX-XXX-|
C#|--9-XX-XXX-XXX-XXX-7-XX-XXX-XXX-XXX-|

D#|----------------------------|
A#|----------------------------|
F#|----------------------------|
C#|--5-5-5---4-5-7-9-7---------|
G#|--5-5-5---4-5-7-9-7---------|
C#|--5-5-5---4-5-7-9-7---------|

D#|----------------------------|
A#|----------------------------|
F#|----------------------------|
C#|----------7-7-7-7-7~--------|
G#|--5-------7-7-7-7-7~--------|
C#|--5--x16--7-7-7-7-7~--------|
     *
D#|----------------------------|
A#|----------------------------|
F#|----------------------------|
C#|--5----7----7---------------|  x2
G#|--5-x8-5-x8-7-x16-----------|
C#|--5---------7---------------|

D#|----------------------------|
A#|----------------------------|
F#|----------------------------|
C#|--5----7----7----9----------|
G#|--5----5----7-x8-9-x8-------|
C#|--5---------7----9----------|

D#|----------------------------|
A#|----------------------------|
F#|----------------------------|
C#|--5-----4----7--------------|
G#|--5-x16-4-x8-7-x8-----------|
C#|--5-----4----7--------------|

Thanks for checking it out!
Comment and rate!

            
            
Suggest correction
Creating personal tab
Creating personal tab
You can edit any tab online and save it as your Personal.

You can edit, replace or remove any tab part or add personal notes – all changes will be seen only by you.

Personal tabs can be accessed anytime from any device, even offline.
Learn more »
comments
print report bad tab
1 comment total.
0 reply
alltimelow64 274 Mar 19, 2010 05:44 PM

good, except i think that the last time the rhythm guitar plays the intro, it's
5-X-X---44-99
5-X-X---44-99
5-X-X---44-99
instead of
5-X-X---77-99
5-X-X---77-99
5-X-X---77-99

guest
You may want to rate the tab now too:
select rating
Wanna post a correction for this tab? Suggest correction