Oops, an error
Loading. Please wait.

Kahvimaito chords

7,669 views 12 this week
no commentswrite comment
1 2 3 4 5
3 more votes to show rating
add to favorites
×
Save as Personal and add changes to this tab that will be seen only by you. Learn more ›
×
You can save this tab as Personal to edit and correct it or add notes. All changes will be seen only by you. Learn more »
launch autoscroll
font size
0
reset
transpose
0
reset
display chords
guitar tuner
edit
Autoscroll
slow
fast
+/-
esc
set tempo
stop
Strumming
There is no strumming pattern for this song yet. and get +5 IQ
Artisti: Arttu Wiskari         
Kappale: Kahvimaito
Jos haluut soittaa helpommilla soinnuilla niin: laita capo 4 väliin ja transponoi -4 (G#m -> Em)

[Intro]
e|---------------------------------------------------------------|
B|---------------------------------------------------------------|
G|-4---8--6--4--6--3----9--8--6--4---8--6--4--6--3---------------|
D|-------------------4-----------------------------4-------------|
A|---------------------------------------------------------------|
E|---------------------------------------------------------------|

[Verse]
G#m      E         F#           B    F#
Sulle munakkaan teen, vaikka päivämäärä
G#m       E         F#
on ohi ajanut jo niistäkin.
G#m    E        F#            B       F#
Aamuröökille meen, vaik on merkkis väärä.
G#m       E          F#
Heitän hartioille fleecetäkin.
          E            F#              Ebm         G#m  F#
Mietin miksi flaksi silloin käy kun tiskivuoren alta ei näy
E       B         F#
edes sitä tiskiharjaa.
          E           F#          Ebm           G#m   F#
Kun on vaihtamatta lakanat nuo miks ei menty sinun luo oi,
E        B             F#
muistutat mun eksää Tarjaa.

[Chorus]

G#m               E                  F#
Ymmärräthän sä sen, sitä kestäisi en,
                  Ebm             G#m
jos ei viimeöinen tunne ollut aitoa.
                      E                      F#
Nyt keräät kamojas pois, viel yksi pyyntö ois:
                      Ebm              G#m
Saanko rinnoistasi tilkan kahvimaitoa?
         E                F#       Ebm              G#m
Multa löytyy kädentaitoa, saada tilkka kahvimaitoa.
          E                F#          Ebm             G#m
Toivon että sinut vielä nään, oisin valmis perhe-elämään.

e|---------------------------------------------------------------|
B|---------------------------------------------------------------|
G|-4---8--6--4--6--3----9--8--6--4---8--6--4--6--3---------------|
D|-------------------4-----------------------------4-------------|
A|---------------------------------------------------------------|
E|---------------------------------------------------------------|

[Verse]
G#m      E     F#           B   F#
Muistikuvia sain, sieltä narikasta.
G#m           E            F#
Et millään löytänyt sun lappua.
G#m      E       F#       B        F#
Sulle takkini hain, ikävöit sun lasta.
G#m           E             F#
Jatkettiin meillä kylmää vappua.

          E             F#          Ebm             G#m   F#
Pyysit romantiikkaa, sanoin oota laitoin soimaan Kaija Koota.
E        B          F#
Itkit YH: n kyyneleitä.
       E           F#        Ebm        G#m  F#
Aamuyössä kaksi yksinäistä rakkauden kerjäläistä.
E          B            F#
Melkein sääliks kävi meitä.

[Chorus]
G#m               E                  F#
Ymmärräthän sä sen, sitä kestäisi en,
                     Ebm             G#m
jos ei viimeöinen tunne ollut aitoa.
                      E                      F#
Nyt keräät kamojas pois, viel yksi pyyntö ois:
                      Ebm              G#m
Saanko rinnoistasi tilkan kahvimaitoa?
         E                F#       Ebm              G#m
Multa löytyy kädentaitoa, saada tilkka kahvimaitoa.
          E                F#          Ebm             G#m
Toivon että sinut vielä nään, oisin valmis perhe-elämään.

[Bridge]
      G#m                         E
Mä hommaan isomman asunnon, ja kohta paikkas kunnossa on.
   C#m                            Ebm
Ammutaan uusi Amorin nuoli, en tahdo olla pelkkä
isäpuoli.

e|---------------------------------------------------------------|
B|---------------------------------------------------------------|
G|-4---8--6--4--6--3----9--8--6--4---8--6--4--6--3---------------|
D|-------------------4-----------------------------4-------------|
A|---------------------------------------------------------------|
E|---------------------------------------------------------------|

[Chorus]
G#m               E                  F#
Ymmärräthän sä sen, sitä kestäisi en,
                     Ebm             G#m
jos ei viimeöinen tunne ollut aitoa.
                      E                      F#
Nyt keräät kamojas pois, viel yksi pyyntö ois:
                      Ebm              G#m
Saanko rinnoistasi tilkan kahvimaitoa?
         E                F#       Ebm              G#m
Multa löytyy kädentaitoa, saada tilkka kahvimaitoa.
         E                F#          Ebm             G#m
Toivon että sinut vielä nään, oisin valmis perhe-elämään.

            
            
Suggest correction
Creating personal tab
Creating personal tab
You can edit any tab online and save it as your Personal.

You can edit, replace or remove any tab part or add personal notes – all changes will be seen only by you.

Personal tabs can be accessed anytime from any device, even offline.
Learn more »
Give kudos to tab author, rate the tab!
1 2 3 4 5
comments
print report bad tab
guest
You may want to rate the tab now too:
select rating
Wanna post a correction for this tab? Suggest correction