Oops, an error
Loading. Please wait.

Gold tab

37 views 1 this week
no commentswrite comment
1 2 3 4 5
3 more votes to show rating
add to favorites
×
Save as Personal and add changes to this tab that will be seen only by you. Learn more ›
×
You can save this tab as Personal to edit and correct it or add notes. All changes will be seen only by you. Learn more »
launch autoscroll
font size
0
reset
how to read this tab
guitar tuner
edit
Autoscroll
slow
fast
+/-
esc
set tempo
stop
About this tab version
Follows the studio version, includes the amp settings, etc. Was this info helpful? Yes No
(Hello! I hope y'all enjoy my tab. I play this song on acoustic or electric, it doesn't really matter.However,
Arum Rae plays this on electric in the studio version. It's set on reverb and I also put it on a setting
that says UK 80's. I hope that helps to achieve that indie vibe. Enjoy!)

[Intro]
e|---------------------------------------------------------------------------|
B|---------------------------------------------------------------------------|
G|---------------------------------------------------------------------------|
D|---------------------------------------------------------------------------|
A|---------------0----2---------------0----2~--------------------------------|
E|-----0----3------------3--0----3-------------------------------------------|

[Verse 1]
                                                          A                   C
e|-----------------------------------------------|--------0-------------------0/-|
B|-----------------------------------------------|--------2-------------------1/-|
G|-----------------------------------------------|------2-2-------------------0/-|
D|-----------------------------------------------|-----2--2-----------------2-2/-|
A|------------------0----2---------------0----2--|----0---0----------------3--3/-|
E|--------0----3------------3--0----3------------|-3------0---------------3---3/-|
   I'm the wind            that hears you calling.    I've come           to carry   

e|---------------------------------------------------|
B|---------------------------------------------------|
G|---------------------------------------------------|
D|---------------------------------------------------|
A|------------------0----2---------------0----2p0h2--|
E|--------0----3------------3--0----3----------------|
   you home.

                                                          A                   C
e|-----------------------------------------------|--------0-------------------0/-|
B|-----------------------------------------------|--------2-------------------1/-|
G|-----------------------------------------------|------2-2-------------------0/-|
D|-----------------------------------------------|-----2--2-----------------2-2/-|
A|------------------0----2---------------0----2--|----0---0----------------3--3/-|
E|--------0----3------------3--0----3------------|-3------0---------------3---3/-|
I'm the sky              that sees you wandering. Around the de-          -serted

                                                          A                   C
e|-----------------------------------------------|--------0-------------------0-|
B|-----------------------------------------------|--------2-------------------1-|
G|-----------------------------------------------|------2-2-------------------0-|
D|-----------------------------------------------|-----2--2-----------------2-2-|
A|------------------0----2---------------0----2--|----0---0----------------3--3-|
E|--------0----3------------3--0----3------------|-3------0---------------3---3-|
    throne.                                      I'm on the move.    

[Chorus]
                                                          D                   B7
e|-----------------------------------------------|--------3-------------------0/-|
B|-----------------------------------------------|--------2-------------------0/-|
G|-----------------------------------------------|--------3-----------------2-2/-|
D|-----------------------------------------------|-0------0----------------1--1/-|
A|------------------0----2---------------0----2/-|--------0---------------2---2/-|
E|--------0----3------------3--0----3------------|--------0-------------------0/-|
     Written in stone.                 Not talking about worldly things.

e|---------------------------------------------------|
B|---------------------------------------------------|
G|---------------------------------------------------|
D|---------------------------------------------------|
A|------------------0----2---------------0----2p0h2--|
E|--------0----3------------3--0----3----------------|
  But soul.

[Verse 2]
                                                         A                   C
e|----------------------------------------------|--------0-------------------0/-|
B|----------------------------------------------|--------2-------------------1/-|
G|----------------------------------------------|------2-2-------------------0/-|
D|----------------------------------------------|-----2--2-----------------2-2/-|
A|----------------------------------------------|----0---0----------------3--3/-|
E|--------0----3----0----2----0----3----0----2--|--------0---------------3---3/-|
   I'm not trend. Or fair weather friend.        To fade...

                                                         A                   C
e|----------------------------------------------|--------0-------------------0-|
B|----------------------------------------------|--------2-------------------1-|
G|----------------------------------------------|------2-2-------------------0-|
D|----------------------------------------------|-----2--2-----------------2-2-|
A|----------------------------------------------|----0---0----------------3--3-|
E|--------0----3----0----2----0----3----0----2--|--------0---------------3---3-|
  In the morning.                         I'll move to the country.           And raise you

                                                          D                   B7
e|-----------------------------------------------|--------3-------------------0/-|
B|-----------------------------------------------|--------2-------------------0/-|
G|-----------------------------------------------|--------3-----------------2-2/-|
D|-----------------------------------------------|-0------0----------------1--1/-|
A|-------------------------------------------2/--|--------0---------------2---2/-|
E|--------0----3----0----2----0----3----0--------|--------0-------------------0/-|
   your family.                      I'm not worried about money babe.

                                                           D                   B7
e|------------------------------------------------|--------3-------------------0/-|
B|------------------------------------------------|--------2-------------------0/-|
G|------------------------------------------------|--------3-----------------2-2/-|
D|------------------------------------------------|-0------0----------------1--1/-|
A|------------------0----2--------------------2/--|--------0---------------2---2/-|
E|--------0----3------------3--0----3----0--------|--------0-------------------0/-|
   We've got gold.          Shining all around us.          Gold-

e|---------------------------------------------------|
B|---------------------------------------------------|
G|---------------------------------------------------|
D|---------------------------------------------------|
A|------------------0----2---------------0----2------|
E|--------0----3------------3--0----3----------------|
            -en happiness.

[Bridge]
  Em
Yeah...
  Em
Yeah...
   C
Ooooh...
   Em
Yeah....
D      B7
Yeah....

[Outro]
e|------------------------------------------------------------------------------|
B|------------------------------------------------------------------------------|
G|------------------------------------------------------------------------------|
D|------------------------------------------------------------------------------|
A|------------------------------------------------------------------------------|
E|-----0----3----0----2----0----3----0----2----0----3----0----2----0----3----0~-|
                     Golden happiness      Happiness...      Happiness...


************************************

| ~  Vibrato
| /  Slide up
| h  Hammer-on
| p  Pull-off

************************************

            
            
Suggest correction
Creating personal tab
Creating personal tab
You can edit any tab online and save it as your Personal.

You can edit, replace or remove any tab part or add personal notes – all changes will be seen only by you.

Personal tabs can be accessed anytime from any device, even offline.
Learn more »
Give kudos to tab author, rate the tab!
1 2 3 4 5
comments
print report bad tab
guest
You may want to rate the tab now too:
select rating
Wanna post a correction for this tab? Suggest correction