Oops, an error
Loading. Please wait.

Before The Break Of Dawn intro tab

version 1
version 1

Whole song

Interactive

11,260 views 1 this week
3 commentsread comments
1 2 3 4 5
1 last vote to show rating
add to favorites
×
Save as Personal and add changes to this tab that will be seen only by you. Learn more ›
×
You can save this tab as Personal to edit and correct it or add notes. All changes will be seen only by you. Learn more »
launch autoscroll
font size
0
reset
how to read this tab
guitar tuner
edit
Autoscroll
slow
fast
+/-
esc
set tempo
stop
Difficulty
intermediate
its only the first half of the intro

d-----------------------------------------------------|
a---6-6/8-8/10----------------------------------------|
f---7-7/9-9/10----------------------------------------|
c-0----------------88---7h10p7----------10-8-7-8------|
g-0--------------8----8--------8-7----7----------10-8-|
c-----------------------------------------------------|

d---------------------------------------------------------|
a---------------------------------------------------------|
f---------------------------------------------------------|
c---5-7-5-8-7-5-7-5-3h5p3-0--------------8/7----------7/5-|
g---------------------------3-----------10/8----------8/7-|
c-5-----------------------------888-888-------777-777-----|

submitted by: Alex Madsen
Suggest correction
Creating personal tab
Creating personal tab
You can edit any tab online and save it as your Personal.

You can edit, replace or remove any tab part or add personal notes – all changes will be seen only by you.

Personal tabs can be accessed anytime from any device, even offline.
Learn more »
Give kudos to tab author, rate the tab!
1 2 3 4 5
comments
print report bad tab
3 comments total.
0 reply
zaleon 10 Apr 10, 2007 04:14 PM

can anyone do the whole song? yea it's a bitch to do but oh well lol

0 reply
adidas3590 10 Jan 11, 2013 07:04 PM

This is wrong except for a few notes.. the first note of the song is played on strings low C and G . I dont know if it was written here wrong by accident because most of it would be right if you played it down a string in some parts.

0 reply
adidas3590 10 Jan 11, 2013 07:50 PM

here's how it should go. Its just the 2 notes on the 8th fret on low c string that get muted. Its what makes it sound more difficult than it actually is but its still kinda cool sounding. And the triplets in the last bar are palm muted as well. Its pretty easy to play. Havent got the rest down yet tho.

fa fb
A]--6-6/8-8/10--------------------]-------------------]
F]--7-7/9-9/10--------7H10-7------]------10-7-7-8-----]
C]---------------88----------8-7--]--------------10-8-]
G]0------------pm--pm-------------]-------------------]
C]0------------8----8-------------]----7--------------]
fc fd
C]--5-7-5-8-7-5-7-5-3h5p3----]--------8-\7----------7\5--]
G]------------------------5-3]--------10\8----------8\7--]
C]5--------------------------]333-333-------222-222------]
... ... ... ...
Then play Fa and Fb as normal then play
C]---5---8-7-5-7-5-3-5-3-2-3-2------]
G]-----------------------------5----]
C]-5---5----------------------------] THEN PLAY FD AGAIN.

guest
Wanna post a correction for this tab? Suggest correction