Oops, an error
Loading. Please wait.

Before The Break Of Dawn intro tab

version 2
version 2

Whole song

Interactive

12,137 views 3 this week
4 commentsread comments
1 2 3 4 5
x 3
add to favorites
×
Save as Personal and add changes to this tab that will be seen only by you. Learn more ›
×
You can save this tab as Personal to edit and correct it or add notes. All changes will be seen only by you. Learn more »
launch autoscroll
font size
0
reset
how to read this tab
guitar tuner
edit
Autoscroll
slow
fast
+/-
esc
set tempo
stop
d/-----------------------------------------------------------|
a/--------6-6/8-8/10-----------------------------------------|
f/--------7-7/9-9/10------------7h10p7-----------------------|
c/-----------------------8-8-----------8-7---10-7-7-8--------|
g/------0-----------------------------------7---------10-8---|
C/-12\--0--------------8-----8-------------------------------|


d/------------------------------------------------------------|
a/------------------------------------------------------------|
f/------------------------------------------------------------|
c/---7-8-7-5-7-5-3-5-3h5p3h5--------------10\8-----------8\7-|
g/----------------------------5-3----------12\10---------10\8-|
C/-5-------------------------------888-888-------777-777------|

Got tired of seeing the tabs that people just copy and pasted. All wrong. This may not 
100% accurate but its 95% closer than the other tabs on this one.
Suggest correction
Creating personal tab
Creating personal tab
You can edit any tab online and save it as your Personal.

You can edit, replace or remove any tab part or add personal notes – all changes will be seen only by you.

Personal tabs can be accessed anytime from any device, even offline.
Learn more »
Give kudos to tab author, rate the tab!
1 2 3 4 5
comments
print report bad tab
4 comments total. Showing first comments.
+1 reply
Gc_blink182 10 Apr 16, 2007 04:17 PM

Best one yet I have to say... I just posted a powertab for the intro... so check it out

-1 reply
**A7X** 10 Sep 24, 2007 07:59 AM

there is more to it than this for the intro can u plz complete i shall blow u hahaahah

0 reply
JE#72 10 Jan 14, 2009 06:13 PM

sick as shit bro printed it and played it sounds just about right

guest
You may want to rate the tab now too:
select rating
Wanna post a correction for this tab? Suggest correction