Oops, an error
Loading. Please wait.

Before The Break Of Dawn tab

version 1
version 1

Whole song

Interactive

9,115 views 3 this week
4 commentsread comments
1 2 3 4 5
1 last vote to show rating
add to favorites
×
Save as Personal and add changes to this tab that will be seen only by you. Learn more ›
×
You can save this tab as Personal to edit and correct it or add notes. All changes will be seen only by you. Learn more »
launch autoscroll
font size
0
reset
how to read this tab
guitar tuner
edit
Autoscroll
slow
fast
+/-
esc
set tempo
stop
Author
/= slide
h= hammer on
p= pull off
ill get more in later...first tab :] so gimme feedback on tips or whatever xD


e|-----------------------------------------------------------------------|
B|------6---6/8---8/10---------------------------------------------------|
G|------7---7/9---9/11---------------7h10p7------------------------------|
D|--0------------------------8-8-----------8p7-----10-7-7-8--------------|
A|--0---------------------8-----8---------------8-----------10---8---5---|
E|-------------------------------------------------------------------5---|

------------------------------------------|
------------------------------------------|
------------------------------------------|
---5-7-5-8-7-5-7-5------------------------|
-------------------7h8p7p0--5-3-----------|
------------------------------------------|


----------------------------------|
----------------------------------|
----------------------------------|
-333-333---8/7----222-222-----7/5-|
-333-333--10/8----222-222-----8/7-|
-333-333----------222-222---------|


e|-----------------------------------------------------------------------|
B|------6---6/8---8/10---------------------------------------------------|
G|------7---7/9---9/11---------------7h10p7------------------------------|
D|--0------------------------8-8-----------8p7-----10-7-7-8--------------|
A|--0---------------------8-----8---------------8-----------10---8---5---|
E|-------------------------------------------------------------------5---|



-----------------------------------|
-----------------------------------|
-----------------------------------|
---7-8-7-5-7-5---5-----------------|
---------------8---8-7-5~-3~-------|
-----------------------------------|


----------------------------------|
----------------------------------|
----------------------------------|
-333-333---8/7----222-222-----7/5-|
-333-333--10/8----222-222-----8/7-|
-333-333----------222-222---------|


e|-------------------10-8-----8--------------------------------------------|
B|--------------------------8----------------------------------------------|
G|----10p7~--10p7-9------7-------9-10~--7h10-7h10-7h9-9---7-10-10-7-999-7--|
D|--0----------------------------------------------------------------------|
A|--0----------------------------------------------------------------------|
E|-------------------------------------------------------------------------|


e|---------------------10--8------8----------------------------------------|
B|------------------------------8------------------------------------------|
G|---7p10~--7p9~-9-7-9------7-----9-10~--10h7-10h7-9h10-10----9-7-101010-7-|
D|----------------------------------------------------------7--------------|
A|-------------------------------------------------------------------------|
E|-------------------------------------------------------------------------|

Suggest correction
Creating personal tab
Creating personal tab
You can edit any tab online and save it as your Personal.

You can edit, replace or remove any tab part or add personal notes – all changes will be seen only by you.

Personal tabs can be accessed anytime from any device, even offline.
Learn more »
Give kudos to tab author, rate the tab!
1 2 3 4 5
comments
print report bad tab
4 comments total. Showing first comments.
0 reply
steksas 16 Feb 06, 2010 03:44 AM

No offens but sry dude, everything is cinda wrong. First of all the tuning is C-G-C-F-A-D. You should look at some other tabs and see how they goes.

0 reply
heinous412 35 Feb 09, 2010 04:35 PM

oh i know its cgcfad haha i just didnt feel like changing the eadgbe

0 reply
heinous412 35 Feb 09, 2010 04:36 PM

guess ill change that now though
thanks for pointing that out haha

guest
You may want to rate the tab now too:
select rating
Wanna post a correction for this tab? Suggest correction