Oops, an error
Loading. Please wait.

Before The Break Of Dawn tab

version 2
version 2

Whole song

Interactive

6,970 views 3 this week
3 commentsread comments
1 2 3 4 5
x 6
add to favorites
×
Save as Personal and add changes to this tab that will be seen only by you. Learn more ›
×
You can save this tab as Personal to edit and correct it or add notes. All changes will be seen only by you. Learn more »
launch autoscroll
font size
0
reset
how to read this tab
guitar tuner
edit
Autoscroll
slow
fast
+/-
esc
set tempo
stop
Before The Break Dawn
As Blood Runs Black
Tuning; Drop C



Intro Part One

    |----------0---------------------------------------------------------------|
    |----------6---6s-8-8s-10--------------------------------------------------|
    |----------7---7s-9-9s-10------------7h10p7--------------------------------|
    |------0---0-----------------8-8-----------8-7----10-8-8-7-----------------|
    |------0----------------------------------------7----------10-7------------|
    |-12S--0-------------------8-----8-----------------------------------------|

    |--------------------------------------------------------------------------|
    |--------------------------------------------------------------------------| 
    |----------------------------------------3s-2-------2s-0-------------------|
    |----5-8-5-7-7-5-7-5-3h5-3h5--0----------5s-3-------3s-2-------------------|
    |-5-----------------------------3---333--------222-------------------------|
    |-5---------------------------------333--------222-------------------------|



    |-------0------------------------------------------------------------------|
    |-------6---6s-8-8s-10-----------------------------------------------------|
    |-------7---7s-9-9s-10------------7h10p7-----------------------------------|
    |---0---0-----------------8-8-----------8-7----10-8-8-7--------------------|
    |---0----------------------------------------7----------10-7---------------|
    |---0-------------------8-----8--------------------------------------------|

    |--------------------------------------------------------------------------|
    |--------------------------------------------------------------------------| 
    |----------------------------------------3s-2-------2s-0-------------------|
    |----5---7---8-7-5-3-5-3-3-2-0-----------5s-3-------3--2-------------------|
    |-5----------------------------------333--------222------------------------|
    |-5----5---5-------------------------333--------222------------------------|
   
   

    |--------------------10--------8--------------------------------------------|
    |----------------------------8----------------------------------------------|
    |----10------10----9----9-10------10-----10----10----10-10--6-6s-9----9-9---|
    |-------12------12-------------------12-----12----12--------7-7s---10-------|X4
    |-0-------------------------------------------------------------------------|
    |-0-------------------------------------------------------------------------|

    |-------------------------------|
    |-------------------------------|  Distortion Kicks In
    |-------------------------------|
    |------0------------------------|
    |-15s--0------------------------|
    |-15s--0------------------------|



   D|-------------------------------|     |-------------------------------|
   A|-------------------------------|     |-------------------------------|   
   F|*------------------------------|     |-------------------------------|
   C|*---------------------8p7------|x2   |---787-----787---7-------------|
   G|----8p5-8p5-------5h8----8p7---|     |--------------10---10-8-7------|
   C|-00---------00-5h8-------------|     |-88----888---------------------|

PM    **         **                       **    ***

    |-----------------------------------------------|
    |-----------------------------------------------|
    |-----------------------------------------------|
    |-------------------8h12p8-8h12p8-7h10p7-7h10p7-| x3 
    |-----10p7-10p7---------------------------------|
    |-777-----------777-----------------------------|

PM    ***           ***    

Transition to verse part 2
    
    |-------------------------------|
    |-------------------------------|
    |-------------------------------|
    |-0-----------------------------|
    |-0-----------------------------|
    |-0-----------------------------|

Let Ring

Verse part 2

    |-------------------------------------------------------------------|
    |-------------------------------------------------------------------|
    |-------------------------------------------------------------------|
    |-------------------------------------7-8-7-------------------------|
    |-------5---5h8p5-5h8p5---7-8-10-8-10-------------------------------|
    |---5-8---8---------------------------------------------------------|


    |--------------------------------------------------------------------------------------|
    |--------------------------------------------------------------------------------------|
    |-----------------------------------------7h10p7-7h10p7-6h9p6-6h9p6--------------------|
    |-------0--------0--------------------------------------------------7------------------|
    |-0-0-0-0--0-0-0-0------5----5h8p5-5h8p5-----------------------------------------------|
    |-0-0-0-0--0-0-0-0--5-8---8------------------------------------------------------------|
 
PM    * * *    * * * 


    |--------------------------------------------------------------------------------------|
    |-------------------------------------------------------10-11-10-----------------------|
    |-----------------------------------------9-10-12-10-12--------------------------------|
    |-------0------7*0---------------------------------------------------------------------|
    |-0-0-0-0--0-0---0------5----5h8p5-5h8p5-----------------------------------------------|
    |-0-0-0-0--0-0---0--5-8---8------------------------------------------------------------| 

PM    * * *    * * * 



    |--------------------------------------------------------------------------------------|
    |--------------------------------------------------------------------------------------|
    |--------------------------------------------------------------------------------------|
    |-------0--------0---------------------------8888-7777-5555----------------------------|
    |-0-0-0-0--0-0-0-0------5----5h8p5-5h8p5---------------------8s7-----------------------|
    |-0-0-0-0--0-0-0-0--5-8---8------------------------------------------------------------|

PM    * * *    * * *                             **** **** **** 

Transition to verse part three
   
    
    |-------------------------------------|
    |-------------------------------------|
    |-------------------------------------|
    |--------0--------0-------------------|
    |--0-0-0-0--0-0-0-0--0-0--s8-7-8s10---|
    |--0-0-0-0--0-0-0-0--0-0--------------|
     
PM     * * *    * * *    * *

    
Verse Part three    

    |--------------------------------------------------------------------------------------|
    |--------------------------------------------------------------------------------------|
    |--------------------------------------------------------------------------------------|
    |-------s15-15-15-15--------s14-14-14-14-------s15-15-15-15----------------------------|x2
    |------------------------------------------------------------8888-7777-10101010-8888---|
    |-0-0-0---------------0-0-0--------------0-0-0-----------------------------------------|

PM    * * *               * * *              * * *


    |--------------------------------------------------------------------------------------|
    |--------------------------------------------------------------------------------------|   
    |--------------------------------------------------------------------------------------|   
    |--------------------------------------------------------------------------------------|x2 
    |-------s13-13-13-13--------s10-10-10-10-------s13-13-13-13--8888-7777-10101010-8888---|
    |-0-0-0---------------0-0-0--------------0-0-0-----------------------------------------|

PM    * * *               * * *              * * *
Verse part Four


   |--------------------------------------------------------------------------------|
   |--------------------------------------------------------------------------------|
   |--------------------------------------------------------------------------------|          
   |--------------------------------------------------------------------------------| 
   |-0-----10h12-----8h10-----8h10p8-7--0-----10h12-----8h10-----8h10p8-7-----------|
   |-0-0-0-------0-0------0-0-----------0-0-0-------0-0------0-0--------------------|

PM   * * *       * *      * *             * *       * *      * *

   |--------------------------------------------------------------------------------|
   |--------------------------------------------------------------------------------|
   |--------------------------------------------------------------------------------|
   |-------7h8---------------------------------7h8----------------------------------|x2
   |-8-------------10h12-----10h12p10-8--8-------------10h12-----10h12p10-8---------|
   |-8-8-8-----8-8-------8-8-------------8-8-8-----8-8-------8-8--------------------|

PM     * *     * *       * *               * *     * *       * *

Transition to verse part 5

Palm muted triplets

    |------------------------------------------------------------------|
    |------------------------------------------------------------------|
    |------------------------------------------------------------------|
    |------------------------------------------777-----5h7p5-----------|
    |-888-555-101010-777-121212-888-101010-777-----888-------8-0-0-0-0-|
    |----------------------------------------------------------0-0-0-0-|
 
Pm   *** ***  * * *  *** * * *  *** * * *  *** *** ***         * * * *


    |--------------------------------------------------------------------------|
    |--------------------------------------------------------------------------|
    |--------------------------------------------------------------------------|
    |--------------------------------------------------------------------------|x2
    |-0-0-0-0-5h7h8-8-8-8-8-4h5h7-5-5-5-5-7h8h10-0-0-0-0-0-0-0-0---------------|
    |-0-0-0-0-------8-8-8-8-------5-5-5-5--------0-0-0-0-0-0-0-0---------------|
 
PM    * * * *       * * * *       * * * *        * * * * * * * * 

    |-----------------------------------------------------------------------------|
    |-----------------------------------------------------------------------------|
    |-----------------------------------------------------------------------------|
    |-0-----------------------8----------------------7-------------------0--------|x2
    |-0-0-0-0-0-0-0-7-h-8-p-7-8-8-8-8-8-8-8-8-h-10-8-7-7-7-7-7-7-7-8-7-5-0--------|
    |-0-0-0-0-0-0-0-7-h-8-p-7-8-8-8-8-8-8-8-8-h-10-8-7-7-7-7-7-7-7-8-7-5-0--------|
 
PM      * * * * * *             * * ** * * *           * * ** * * 

Transition to breakdown
  
    |-----------------------------|
    |-----------------------------|
    |-----------------------------|
    |-----------------------------|x4
    |---------7---------8-----10--|
    |-0-0-7h8---0-0-7h8---7h8-----|

Breakdown

   |--------------------------------------------------------------------------------------|
   |--------------------------------------------------------------------------------------|
   |--------------------------------------------------------------------------------------|
   |------------------------------------------------------------0-----0-----0-----0-0-0---|
   |--0-0-0-0--0---0-0-0-0--0------0-0-0-0--0---0-0-0-0--0------0-000-0-000-0-000-0-0-0---|
   |--0-0-0-0--0---0-0-0-0--0--15s-0-0-0-0--0---0-0-0-0--0-15s--0-000-0-000-0-000-0-0-0---|

PM    * * * *  *   * * * *  *      * * * *  *   * * * *  *        ***   ***   ***
Verse part 6
  
   |--------------------------------------------------------------------------------------|
   |----------10-----------------10-11-13-11---------10-----------------10-11brb----------|
   |---7-9-10----10-9----9-10-12--------------7-9-10----10-9----9-10-12-------------------|
   |------------------8--------------------------------------8----------------------------|
   |--------------------------------------------------------------------------------------|
   |--------------------------------------------------------------------------------------|


   |--------------------------------------------------------------------------------------|
   |----------10-----------------10-11-13-11---------10-----------------10-11-13-11-------|
   |---7-9-10----10-9----9-10-12--------------7-9-10----10-9----9-10-12-------------------|
   |------------------8--------------------------------------8----------------------------|
   |--------------------------------------------------------------------------------------|
   |--------------------------------------------------------------------------------------|



   |--------------------------------------------------------------------------------------|
   |----------10-----------------10-11-13-11---------10-------------------------11brb-----|
   |---7-9-10----10-9----9-10-12--------------7-9-10----10-9------------9-10-12-----------|
   |------------------8--------------------------------------8--9-10-12-------------------|
   |--------------------------------------------------------------------------------------|
   |--------------------------------------------------------------------------------------|


   |--------------------------------------------------------------------------------------|
   |----------10-----------------10-11-13-11---------10-----------------10-11brb----------|
   |---7-9-10----10-9----9-10-12--------------7-9-10----10-9----9-10-12-------------------|
   |------------------8--------------------------------------8----------------------------|
   |--------------------------------------------------------------------------------------|
   |--------------------------------------------------------------------------------------|


Verse part 7



   |--------------------------------------------------------------------------------------|
   |--------------------------------------------------------------------------------------|
   |--------------------------------------------------------------------------------------|
   |--------7--------------7-8-10-8-7--------7--------------7-8-10-8-7--------------------|
   |--5-7-8---8-7---7-8-10-------------5-7-8---8-7---7-8-10-------------------------------|
   |--------------8--------------------------------8--------------------------------------|


   |--------------------------------------------------------------------------------------|
   |--------------------------------------------------------------------------------------|
   |--------------------------------------------------------------------------------------|
   |--------7--------------7-8-10-8-7--------7--------------7-8-10-8-7--------------------|
   |--5-7-8---8-7---7-8-10-------------5-7-8---8-7---7-8-10-------------------------------|
   |--------------8--------------------------------8--------------------------------------|


   |--------------------------------------------------------------------------------------|
   |--------------------------------------------------------------------------------------|
   |--------------------------------------------------------------------------------------|
   |--------7--------------7-8-10-8-7--------7--------------7-8-10-8-7--------------------|
   |--5-7-8---8-7---7-8-10-------------5-7-8---8-7---7-8-10-------------------------------|
   |--------------8--------------------------------8--------------------------------------|


   |--------------------------------------------------------------------------------------|
   |--------------------------------------------------------------------------------------|
   |--------------------------------------------------------------------------------------|
   |--------7--------------7-8-10-8-7--------7--------------7-8-10-8-7--------------------|
   |--5-7-8---8-7---7-8-10-------------5-7-8---8-7---7-8-10-------------------------------|
   |--------------8--------------------------------8--------------------------------------|
  

Unfortunately i do not know the solo. If any one would like to post it, by all 
means feel free to do so.
These are the Chords anyway.


   |---------------| 
   |---------------| 
   |---------------| 
   |-0---8---5---7-| 
   |-0---8---5---7-| 
   |-0---8---5---7-| 

Post solo

        All Palm Muted
   |----------------------------------------------------| 
   |----------------------------------------------------| 
   |----------------------------------------------------| 
   |----7-7---7-7----7-7---7-7----0-0--0-0----2-2-----2-| x8
   |-5-5----5----3-3----3------1-1----1----3-3------3---| 
   |----------------------------------------------------|


Outro 
  
   |--------------------------------------------------------------------------| 
   |--------------------------------------------------------------------------| 
   |-------------12AH--------------9AH----------------------------------------| 
   |------------------------------------------------5AH-----------------------| 
   |-0-0-000-0-0------0-0-000-0-0-------0-0-000-0-0------0-0-000-0-0----------| 
   |-0-0-000-0-0------0-0-000-0-0-------0-0-000-0-0------0-0-000-0-0--3AHBend-| 
 
PM   * * *** * *      * * *** * *       * * *** * *      * * *** * *
 

   |------------------------------------------------------------------------| 
   |--------------9-NH-------------------------------9-NH-------------------| 
   |--------------9-NH-------------------------------9-NH-------------------| 
   |--------------------------------------------------------------------0---| 
   |-0-0-000-0-0--------0-0-000-0-0-----0-0-000-0-0--------0-0-000-0-0--0---| Let Ring And
   |-0-0-000-0-0--------0-0-000-0-0-----0-0-000-0-0--------0-0-000-0-0--0---| Fade out.

Thats All Folks.

            
            
Suggest correction
Creating personal tab
Creating personal tab
You can edit any tab online and save it as your Personal.

You can edit, replace or remove any tab part or add personal notes – all changes will be seen only by you.

Personal tabs can be accessed anytime from any device, even offline.
Learn more »
comments
print report bad tab
3 comments total.
0 reply
MHI 62 Jul 02, 2010 06:36 AM

Ho my God, this is magnificence!
+5 stars for you, my friend!

It's been a while since 2008 I've been searching this tab!

Much compliment for you, sir!

+1 reply
shaun_cookie 10 Jul 29, 2010 02:39 PM

Your quite welcome mate

0 reply
EddFace 10 Aug 17, 2010 05:34 PM

...I want to have sex with this tab :D

guest
Wanna post a correction for this tab? Suggest correction