Oops, an error
Loading. Please wait.

Brighter Side Of Suffering tab

version 2
version 2

Whole song

Interactive

25,511 views 1 this week
15 commentsread comments
1 2 3 4 5
x 27
add to favorites
×
Save as Personal and add changes to this tab that will be seen only by you. Learn more ›
×
You can save this tab as Personal to edit and correct it or add notes. All changes will be seen only by you. Learn more »
launch autoscroll
font size
0
reset
how to read this tab
guitar tuner
edit
Autoscroll
slow
fast
+/-
esc
set tempo
stop
Author
As Blood Runs Black - The Brighter Side Of Suffering
Tabbed by: rcw110131

Tuning: Drop C (CGCFAD)

Guitar I - Left Guitar
Guitar II - Right Guitar
Guitar III - Solo Guitar


If I had kids, I'd bet on their lives that this tab is 100% correct. But
since I don't, you'll just have to take my word for it and understand that
I wouldn't waste my time spending many hours analyzing a song note per note
by slowing it down in Adobe Audition and then submit a tab that isn't
completely correct. This whole song is played at a pretty fast tempo, so
you'll more than likely need to work on your palm-muting speed in order to
play it correctly. So on that note, enjoy/rate/comment!!!  :p


h - hammer-on
p - pull-off
\ - slide down
/ - slide up
* - mute string (ie. stop note(s) from ringing)
~ - vibrato


===============================================================================
-Intro Riff- (0:00 - 0:12) 

  Guitar II:
D|----------------|----------------|----------------|
A|----------------|----------------|----------------|
F|----------------|----------------|----------------|
C|7---------------|--------5-------|----8-----5-----|
G|------8---------|--------------7-|----------------|
C|--0-0---0-0-0-0-|0-0-0-0---0-0---|0-0---0-0---0-0-|
PM  . .   . . . .  . . . .   . .    . .   . .   . .

D|----------------|----------------|----------------|
A|----------------|----------------|----------------|
F|----------------|----------------|----------------|
C|7---------------|--------5-------|----3-----------|
G|------5---------|--------------7-|----------5h7h8-|
C|--3-3---3-3-3-3-|3-3-3-3---3-3---|3-3---3-3-------|
PM  . .   . . . .  . . . .   . .    . .   . .

                                  THEN

  Guitar II: same as above

  Guitar I:
D|----------------|----------------|----------------|----------------|
A|----------------|----------------|----------------|----------------|
F|----------------|----------------|----------------|----------------|
C|----------------|----------------|----------------|----------------|
G|0-0-*-0-*-------|--------0-0-0-0-|*---0-0-0-0-0-0-|3---------------|
C|0-0-*-0-*-------|--------0-0-0-0-|*---0-0-0-0-0-0-|3---------------|
PM. .   .                  . . . .      . . . . . .

D|----------------|----------------|
A|----------------|----------------|
F|----------------|----------------|
C|--------\\\\\\\\|\\\\\\\\\\\\\\\\|
G|--------\\\big long pickscrape\\\|
C|--------\\\\\\\\|\\\\\\\\\\\\\\\\|


===============================================================================
-Riff 1- (0:12 - 0:23)  [just that Guitar II intro riff again]

  Guitars I + II:
D|----------------|----------------|----------------|
A|----------------|----------------|----------------|
F|----------------|----------------|----------------|
C|7---------------|--------5-------|----8-----5-----|
G|------8---------|--------------7-|----------------|
C|--0-0---0-0-0-0-|0-0-0-0---0-0---|0-0---0-0---0-0-|
PM  . .   . . . .  . . . .   . .    . .   . .   . .          x2

D|----------------|----------------|----------------|
A|----------------|----------------|----------------|
F|----------------|----------------|----------------|
C|7---------------|--------5-------|----3-----------|
G|------5---------|--------------7-|----------5h7h8-|
C|--3-3---3-3-3-3-|3-3-3-3---3-3---|3-3---3-3-------|
PM  . .   . . . .  . . . .   . .    . .   . .


===============================================================================
-Riff 2- (0:24 - 0:41)

  Guitars I + II:
D|----------------|----------------|----------------|
A|----------------|----------------|----------------|
F|----------------|----------------|----------------|
C|7---------------|--------5-------|----8-----5-----|
G|------8---------|--------------7-|----------------|
C|--8-8---8-8-8-8-|8-8-8-8---8-8---|8-8---8-8---8-8-|
PM  . .   . . . .  . . . .   . .    . .   . .   . .          x3

D|----------------|----------------|----------------|
A|----------------|----------------|----------------|
F|----------------|----------------|----------------|
C|7---------------|--------5-------|----------------|
G|------5---------|--------------7-|----8-----5h7h8-|
C|--0-0---0-0-0-0-|0-0-0-0---0-0---|0-0---0-0-------|
PM  . .   . . . .  . . . .   . .    . .   . .


===============================================================================
-Fill Thingy- (0:42 - 0:44)

  Guitars I + II:
D|----------------|----------------|-----------------|
A|----------------|----------------|-----------------|
F|----------------|----------------|-----------------|
C|----------------|--------5-------|----8------------|
G|------8---------|--------------7-|----------7h8h10-|
C|8-8-8---8-8-8-8-|8-8-5-5---5-5---|7-7---8-8--------|
PM. . .   . . . .  . . . .   . .    . .   . .


===============================================================================
-Riff 3- (0:44 - 0:56)

  Guitars I + II:
D|----------------|----------------|----------------|
A|----------------|----------------|----------------|
F|----------------|----------------|----------------|
C|----------------|----------------|----------------|
G|8-----5-----8p5p|0-8p5p0-8-----5-|----8p5p0-8p5p0-|
C|--0-0---0-0-----|----------0-0---|0-0-------------|
PM  . .   . .                . .    . .

D|----------------|----------------|----------------|
A|----------------|----------------|----------------|
F|----------------|----------------|----------------|
C|----------------|----------------|----------------|
G|7-----4-----7p4p|0-7p4p0-7-----4-|----7p4p0-7p4p0-|
C|--0-0---0-0-----|----------0-0---|0-0-------------|
PM  . .   . .                . .    . .

D|------------------|------------------|------------------|
A|------------------|------------------|------------------|
F|------------------|------------------|------------------|
C|------------------|------------------|------------------|
G|10-----7-----10p7p|0-10p7p0-10-----7-|----10p7p0-10p7p0-|
C|---8-8---8-8------|------------8-8---|8-8---------------|
PM   . .   . .                   . .    . .

D|----------------|----------------|-----------------|
A|----------------|----------------|-----------------|
F|----------------|----------------|-----------------|
C|----------------|----------------|-----------------|
G|8-----5-----8p5p|0-8p5p0-7-----4-|----7p4p0-12p8p0-|
C|--7-7---7-7-----|----------5-5---|5-5--------------|
PM  . .   . .                . .    . .


===============================================================================
-Riff 4- (0:56 - 1:08)

  Guitar I:
D|----------------|----------------|----------------|
A|----------------|----------------|----------------|
F|----------------|----------------|----------------|
C|----------------|----------------|----------------|
G|8-----5-----7---|--8p5p0-8-----5-|----8p5p0-8p5p0-|
C|--0-0---0-0---0-|0---------0-0---|0-0-------------|
PM  . .   . .   .  .         . .    . .

D|----------------|----------------|----------------|
A|----------------|----------------|----------------|
F|----------------|----------------|----------------|
C|----------------|----------------|----------------|
G|000---000---000-|--000---555---55|5---444---444---|
C|000---000---000-|--000---333---33|3---222---222---|
PM...   ...   ...    ...   ...   .. .   ...   ...

D|-----------------|------------------|------------------|
A|-----------------|------------------|------------------|
F|-----------------|------------------|------------------|
C|-----------------|------------------|------------------|
G|10-----7-----8---|--10p7p0-10-----7-|----10p7p0-10p7p0-|
C|---8-8---8-8---8-|8-----------8-8---|8-8---------------|
PM   . .   . .   .  .           . .    . .

D|----------------|----------------|----------------|
A|----------------|----------------|----------------|
F|----------------|----------------|----------------|
C|----------------|----------------|----------------|
G|555---555---555-|--888---555---44|4---888---888---|
C|333---333---333-|--777---333---22|2---777---777---|
PM...   ...   ...    ...   ...   .. .   ...   ...


  Guitar II:
D|----------------|----------------|----------------|
A|----------------|----------------|----------------|
F|----------------|----------------|----------------|
C|----------------|----------------|----------------|
G|8-----5-----7---|--8p5p0-8-----5-|----8p5p0-8p5p0-|
C|--0-0---0-0---0-|0---------0-0---|0-0-------------|
PM  . .   . .   .  .         . .    . .

D|----------------|----------------|----------------|
A|----------------|----------------|----------------|
F|----------------|----------------|----------------|
C|----------------|----------------|----------------|
G|7-----4-----5---|--7p4p0-7-----4-|----7p4p0-7p4p0-|
C|--0-0---0-0---0-|0---------0-0---|0-0-------------|
PM  . .   . .   .  .         . .    . .

D|-----------------|------------------|------------------|
A|-----------------|------------------|------------------|
F|-----------------|------------------|------------------|
C|-----------------|------------------|------------------|
G|10-----7-----8---|--10p7p0-10-----7-|----10p7p0-10p7p0-|
C|---8-8---8-8---8-|8-----------8-8---|8-8---------------|
PM   . .   . .   .  .           . .    . .

D|----------------|----------------|-----------------|
A|----------------|----------------|-----------------|
F|----------------|----------------|-----------------|
C|----------------|----------------|-----------------|
G|8-----5-----7---|--8p5p0-7-----4-|----7p4p0-12p8p0-|
C|--7-7---7-7---7-|7---------5-5---|5-5--------------|
PM  . .   . .   .  .         . .    . .


===============================================================================
-Riff 5- (1:08 - 1:20)

  Guitar II:  same as Riff 4

  Guitar I:
D|------------------|------------------|------------------|
A|------------------|------------------|------------------|
F|------------------|------------------|------------------|
C|------------------|------------------|------------------|
G|12-----8-----10---|--12p8p0-12-----8-|----12p8p0-12p8p0-|
C|---0-0---0-0----0-|0-----------0-0---|0-0---------------|
PM   . .   . .    .  .           . .    . .

D|-----------------|------------------|------------------|
A|-----------------|------------------|------------------|
F|-----------------|------------------|------------------|
C|-----------------|------------------|------------------|
G|10-----7-----8---|--10p7p0-10-----7-|----10p7p0-10p7p0-|
C|---0-0---0-0---0-|0-----------0-0---|0-0---------------|
PM   . .   . .   .  .           . .    . .

D|----------------|----------------|----------------|
A|----------------|----------------|----------------|
F|----------------|----------------|----------------|
C|8-----5-----7---|--8p5p0-8-----5-|----8p5p0-8p5p0-|
G|----------------|----------------|----------------|
C|--8-8---8-8---8-|8---------8-8---|8-8-------------|
PM  . .   . .   .  .         . .    . .

D|------------------|------------------|------------------|
A|------------------|------------------|------------------|
F|------------------|------------------|------------------|
C|------------------|------------------|-----------11p7p0-|
G|12-----8-----10---|--12p8p0-10-----7-|----10p7p0--------|
C|---7-7---7-7----7-|7-----------5-5---|5-5---------------|
PM   . .   . .    .  .           . .    . .


===============================================================================
-Breakdown- (1:20 - 1:44)

  Guitars I + II:
D|----------------|----------------|----------------|----------------|
A|----------------|----------------|----------------|----------------|
F|----------------|----------------|----------------|----------------|
C|----------------|----------------|----------------|----------------|
G|000--000--*-----|000--*----------|000--000--000--0|00--*-----------|
C|000--000--*-----|000--*----------|000--000--000--0|00--*-----------|
PM...  ...         ...              ...  ...  ...  . ..

D|----------------|----------------|----------------|----------------|
A|----------------|----------------|----------------|----------------|
F|----------------|----------------|----------------|----------------|
C|----------------|----------------|----------------|----------------|
G|000--000--*-----|-000--000--000--|*-----000--*----|------000--000--|
C|000--000--*-----|-000--000--000--|*-----000--*----|------000--000--|
PM...  ...          ...  ...  ...         ...              ...  ...

D|----------------|------------
A|----------------|------------
F|----------------|------------
C|----------------|------------
G|*---------000--0|00--*-------
C|*---------000--0|00--*-------
PM          ...  . ..

                                  THEN

     Guitar I:                              Guitar II:
      ----|----------------|                 ----|-----------------|
      ----|----------------|                 ----|-----------------|
      ----|----------------|                 ----|-----------------|
      \\\\|\\\\\\\\\\\\\\\\|                 ----|-----------------|
      \\\long pickscrape\\\|                 000-|-*---------------|
      \\\\|\\\\\\\\\\\\\\\\|                 000-|-*--19\\\\\\\\\\\|
                                             ...
                                  THEN

  Guitars I + II:
D|----------------|----------------|----------------|----------------|
A|----------------|----------------|----------------|----------------|
F|----------------|----------------|----------------|----------------|
C|----------------|----------------|----------------|----------------|
G|000--000--------|000-------------|000--000--000--0|00--------------|
C|000--000--------|000-------------|000--000--000--0|00--------------|
PM...  ...         ...              ...  ...  ...  . ..

D|----------------|----------------|----------------|----------------|
A|----------------|----------------|----------------|----------------|
F|----------------|----------------|----------------|----------------|
C|----------------|----------------|----------------|----------------|
G|000--000--------|000--000--000---|------000-------|-----000--000---|
C|000--000--------|000--000--000---|------000-------|-----000--000---|
PM...  ...         ...  ...  ...          ...             ...  ...

D|----------------|-----------------|--------|--------|---------|
A|----------------|-----------------|--------|--------|---------|
F|----------------|-----------------|--------|--------|---------|
C|----------------|-----------------|--------|--------|---------|
G|---------000--00|0----------000---|----5---|----4---|--10-----|
C|---------000--00|0----------000-19|\\\\3---|----2---|---8-----|
PM         ...  .. .          ...


===============================================================================
-Riff 6- (1:45 - 2:09)

  Guitar I:
D|----------------|----------------|----------------|----------------|
A|----------------|----------------|----------------|----------------|
F|----------------|----------------|----------------|----------------|
C|----------------|----------------|----------------|----------------|
G|8-----------8---|8---5---7-------|----------------|8-----------8---|
C|--0-0-0-0-0---0-|--0---0---0-0-0-|0-0-0-0-0-0-0-0-|--0-0-0-0-0---0-|
PM  . . . . .   .    .   .   . . .  . . . . . . . .    . . . . .   .

D|----------------|----------------|----------------|-----------------|
A|----------------|----------------|----------------|-----------------|
F|----------------|----------------|----------------|-----------------|    x2
C|----------------|----------------|7-----------7---|7----------------|
G|8---5---7-------|----------------|----------------|----8---10-------|
C|--0---0---0-0-0-|0-0-0-0-0-0-0-0-|--8-8-8-8-8---8-|--8---8----8-8-8-|
PM  .   .   . . .  . . . . . . . .    . . . . .   .    .   .   . . .

D|----------------|----------------|-----------------|----------------|
A|----------------|----------------|-----------------|----------------|
F|----------------|----------------|-----------------|----------------|
C|----------------|7-----------7---|7---8------------|----------------|
G|----------------|----------------|--------10-------|----------------|
C|8-8-8-8-8-8-8-8-|--8-8-8-8-8---8-|--8---7----7-7-7-|7-7-7-7-7-7-7-7-|
PM. . . . . . . .    . . . . .   .    .    .   . . .  . . . . . . . .


  Guitar II:
D|----------------|----------------|----------------|----------------|
A|----------------|----------------|----------------|----------------|
F|----------------|----------------|----------------|----------------|
C|----------------|----------------|----------------|----------------|
G|8-----------8---|8---5---7-------|----------------|8-----------8---|
C|--0-0-0-0-0---0-|--0---0---0-0-0-|0-0-0-0-0-0-0-0-|--0-0-0-0-0---0-|
PM  . . . . .   .    .   .   . . .  . . . . . . . .    . . . . .   .

D|----------------|----------------|----------------|----------------|
A|----------------|----------------|----------------|----------------|
F|----------------|----------------|----------------|----------------|     x2
C|----------------|----------------|----------------|----0-----------|
G|8---5---7-------|----------------|8-----------8---|8-------7-------|
C|--0---0---0-0-0-|0-0-0-0-0-0-0-0-|--8-8-8-8-8---8-|--8---8---8-8-8-|
PM  .   .   . . .  . . . . . . . .    . . . . .   .    .   .   . . .

D|----------------|----------------|-----------------|----------------|
A|----------------|----------------|-----------------|----------------|
F|----------------|----------------|-----------------|----------------|
C|----------------|----------------|-----------------|----------------|
G|----------------|8-----------8---|8---10---7-------|----------------|
C|8-8-8-8-8-8-8-8-|--8-8-8-8-8---8-|--8----7---7-7-7-|7-7-7-7-7-7-7-7-|
PM. . . . . . . .    . . . . .   .    .    .   . . .  . . . . . . . .


===============================================================================
-Riff 1 Again- (2:09 - 2:21)

  Guitars I + II:
D|----------------|----------------|----------------|
A|----------------|----------------|----------------|
F|----------------|----------------|----------------|
C|7---------------|--------5-------|----8-----5-----|
G|------8---------|--------------7-|----------------|
C|--0-0---0-0-0-0-|0-0-0-0---0-0---|0-0---0-0---0-0-|
PM  . .   . . . .  . . . .   . .    . .   . .   . .          x2

D|----------------|----------------|----------------|
A|----------------|----------------|----------------|
F|----------------|----------------|----------------|
C|7---------------|--------5-------|----3-----------|
G|------5---------|--------------7-|----------5h7h8-|
C|--3-3---3-3-3-3-|3-3-3-3---3-3---|3-3---3-3-------|
PM  . .   . . . .  . . . .   . .    . .   . .


===============================================================================
-Riff 2 Again- (2:21 - 2:39)

  Guitars I + II:
D|----------------|----------------|----------------|
A|----------------|----------------|----------------|
F|----------------|----------------|----------------|
C|7---------------|--------5-------|----8-----5-----|
G|------8---------|--------------7-|----------------|
C|--8-8---8-8-8-8-|8-8-8-8---8-8---|8-8---8-8---8-8-|
PM  . .   . . . .  . . . .   . .    . .   . .   . .          x3

D|----------------|----------------|----------------|
A|----------------|----------------|----------------|
F|----------------|----------------|----------------|
C|7---------------|--------5-------|----------------|
G|------5---------|--------------7-|----8-----5h7h8-|
C|--0-0---0-0-0-0-|0-0-0-0---0-0---|0-0---0-0-------|
PM  . .   . . . .  . . . .   . .    . .   . .


===============================================================================
-Fill Thingy #2- (2:39 - 2:42)

  Guitars I + II:
D|----------------|----------------|-----------------|
A|----------------|----------------|-----------------|
F|----------------|----------------|-----------------|
C|7---------------|--------5-------|----8------------|
G|------8---------|--------------7-|----------7h8h10-|
C|--8-8---8-8-8-8-|8-8-5-5---5-5---|7-7---8-8--------|
PM  . .   . . . .  . . . .   . .    . .   . .


===============================================================================
-Pre-Solo Riff- (2:42 - 2:48)

  Guitars I + II:
D|----------------|----------------|----------------|
A|----------------|----------------|----------------|
F|----------------|----------------|----------------|
C|----------------|----------------|----------------|
G|------------4---|--5-----7-------|----4-----------|
C|8-8-8-8-8-8---8-|8---8-8---8-8-8-|8-8---8-8-5h7h8-|
PM. . . . . .   .  .   . .   . . .  . .   . .

D|----------------|----------------|----------------|
A|----------------|----------------|----------------|
F|----------------|----------------|----------------|
C|----------------|----------------|----------------|
G|------------4---|--5-----7-------|----4-----4h5h8-|
C|8-8-8-8-8-8---8-|8---8-8---7-7-7-|7-7---7-7-------|
PM. . . . . .   .  .   . .   . . .  . .   . .


===============================================================================
-Solo- (2:48 - 3:12)

  Guitars I + II:
D|----------------|-----------------|----------------|----------------|
A|----------------|-----------------|----------------|----------------|
F|----------------|-----------------|----------------|----------------|
C|----------------|-----------------|----------------|----------------|
G|8-----------5---|--10-----7-------|----8-----5h7h8-|8-----------5---|
C|--0-0-0-0-0---0-|0----0-0---0-0-0-|0-0---0-0-------|--0-0-0-0-0---0-|
PM  . . . . .   .  .    . .   . . .  . .   . .          . . . . .   .

D|-----------------|-------------------|----------------|----------------|
A|-----------------|-------------------|----------------|----------------|
F|-----------------|-------------------|----------------|----------------|
C|-----------------|-------------------|----------------|----------------|
G|--10-----7-------|----8h10p8-7h8p7-5-|------------4---|--5-----7-------|
C|0----0-0---0-0-0-|0-0----------------|8-8-8-8-8-8---8-|8---8-8---8-8-8-|
PM.    . .   . . .  . .                 . . . . . .   .  .   . .   . . .

D|----------------|----------------|----------------|----------------|
A|----------------|----------------|----------------|----------------|
F|----------------|----------------|----------------|----------------|
C|----------------|----------------|----------------|----------------|
G|----4-----------|------------4---|--5-----7-------|----4-----4h5h8-|
C|8-8---8-8-5h7h8-|8-8-8-8-8-8---8-|8---8-8---7-7-7-|7-7---7-7-------|
PM. .   . .        . . . . . .   .  .   . .   . . .  . .   . .

                                  THEN

             repeat the same         D|------------------|
           12 bars, except for       A|------------------|
          the 6th one, where you     F|------------------|
            play this ---------->    C|----7h8p7-5h7p5---|
                 instead             G|----------------8-|
                                     C|0-0---------------|
                                     PM. .


  Guitar III:
D|------------------------|------------------------|
A|------------------------|---------------14-15-17-|
F|------------------------|------14-15-15----------|
C|------------------11-12-|15-15-------------------|
G|---------10-12-13-------|------------------------|
C|12-14-15----------------|------------------------|

D|-------------------------|------------------------|
A|18-15-14~----14h15p14----|14----------------------|
F|----------------------15-|---15-14-15-14----14----|
C|-------------------------|---------------17----17-|
G|-------------------------|------------------------|
C|-------------------------|------------------------|

D|----------------------|-------------------|--------------------|
A|----------------------|-------------------|---------11~--------|
F|----------------------|-------------------|------10------------|
C|15-17-15-14-12~----12h|14p12-11~----------|---12---------------|
G|----------------------|-------------------|13------------------|
C|----------------------|-------------------|--------------------|

D|------------------10-13-|10----------10-15-10----|
A|---------------11-------|---11----11----------11-|
F|------------10----------|------10----------------|
C|---------12-------------|------------------------|
G|12-13-12----------------|------------------------|
C|------------------------|------------------------|

D|------------------------|-----------------------|--------------------|
A|---------11-13-11-10-11-|10----10---------------|--------------------|
F|------10----------------|---12----12-10-12-10-9-|10-9----------------|
C|12-12-------------------|-----------------------|-----12~------12h14-|
G|------------------------|-----------------------|--------------------|
C|------------------------|-----------------------|--------------------|

D|--------------------|------------------13-17-|13----------13-18-13----|
A|---------15~--------|---------------15-------|---15----15----------15-|
F|------14------------|------------14----------|------14----------------|
C|---15---------------|------12-15-------------|------------------------|
G|16------------------|10/12-------------------|------------------------|
C|--------------------|------------------------|------------------------|

D|-----------------------|---------------------------|
A|---------15-17-15-14~--|---14h15p14----14----------|
F|------14---------------|------------15----15-14-15-|
C|---15------------------|---------------------------|
G|17---------------------|---------------------------|
C|-----------------------|---------------------------|

D|----------------------|-----------------------|----------------------|
A|-------15/17----------|/18------17-18-15-17-15|-14-15-14----17-------|
F|14--------------------|-----------------------|----------15--------15|
C|---15-----------------|-----------------------|----------------------|
G|----------------------|-----------------------|----------------------|
C|----------------------|-----------------------|----------------------|

D|--------------------|----------------------|-------------13/15----13|
A|-17-----------------|/18-----17-18-15-17-15|-14-15-14---------------|
F|----15-14~--------14|----------------------|----------15------------|
C|--------------------|----------------------|------------------------|
G|--------------------|----------------------|------------------------|
C|--------------------|----------------------|------------------------|

D|h15p13-12~---------|13~--------------|
A|-------------------|-----------------|
F|-------------------|-----------------|
C|-------------------|-----------------|
G|-------------------|-----------------|
C|-------------------|-----------------|


===============================================================================
-Pre-Outro Riff- (3:12 - 3:36)

  Guitars I + II:
D|----------------|----------------|----------------|----------------|
A|----------------|----------------|----------------|----------------|
F|----------------|----------------|----------------|----------------|
C|----------------|----------------|----------------|----------------|
G|8-----------8---|8---5---7-------|----------------|8-----------8---|
C|--0-0-0-0-0---0-|--0---0---0-0-0-|0-0-0-0-0-0-0-0-|--0-0-0-0-0---0-|
PM  . . . . .   .    .   .   . . .  . . . . . . . .    . . . . .   .

D|----------------|----------------|----------------|-----------------|
A|----------------|----------------|----------------|-----------------|
F|----------------|----------------|----------------|-----------------|
C|----------------|----------------|----------------|-----------------|
G|8---5---7-------|----------------|8-----------8---|8---10---7-------|
C|--0---0---0-0-0-|0-0-0-0-0-0-0-0-|--8-8-8-8-8---8-|--8----8---8-8-8-|
PM  .   .   . . .  . . . . . . . .    . . . . .   .    .    .   . . .

D|----------------|----------------------|---------------------|
A|----------------|----------------------|---------------------|
F|----------------|----------------------|---------------------|
C|----------------|----------------------|-----7---------------|
G|----------------|8----------------8----|8---------7----------|
C|8-8-8-8-8-8-8-8-|--10-10-10-10-10---10-|--10---10---10-10-10-|
PM. . . . . . . .     .  .  .  .  .    .     .    .    .  .  .

D|------------------------|
A|------------------------|
F|------------------------|
C|------------------------|
G|------------------------|
C|10-10-10-10-10-10-10-10-|
PM .  .  .  .  .  .  .  .

                                  THEN

  Guitar II: same as above

  Guitar I:
D|----------------|-----------------|----------------|----------------|
A|----------------|-----------------|----------------|----------------|
F|----------------|-----------------|----------------|----------------|
C|7-----------7---|7----------------|----------------|7-----------7---|
G|----------------|----8---10-------|----------------|----------------|
C|--0-0-0-0-0---0-|--0---0----0-0-0-|0-0-0-0-0-0-0-0-|--0-0-0-0-0---0-|
PM  . . . . .   .    .   .    . . .  . . . . . . . .    . . . . .   .

D|-----------------|----------------|----------------|-----------------|
A|-----------------|----------------|----------------|-----------------|
F|-----------------|----------------|----------------|-----------------|
C|7----------------|----------------|7-----------7---|7---8------------|
G|----8---10-------|----------------|----------------|--------10-------|
C|--0---0----0-0-0-|0-0-0-0-0-0-0-0-|--8-8-8-8-8---8-|--8---8----8-8-8-|
PM  .   .    . . .  . . . . . . . .    . . . . .   .    .    .   . . .

D|----------------|----------------------|-----------------------|
A|----------------|----------------------|-----------------------|
F|----------------|----------------------|-----------------------|
C|----------------|7----------------7----|7----10----------------|
G|----------------|----------------------|-----------10----------|
C|8-8-8-8-8-8-8-8-|--10-10-10-10-10---10-|--10----10----10-10-10-|
PM. . . . . . . .     .  .  .  .  .    .     .    .     .  .  .

D|------------------------|
A|------------------------|
F|------------------------|
C|------------------------|
G|------------------------|
C|10-10-10-10-10-10-10-10-|
PM .  .  .  .  .  .  .  .


===============================================================================
-Outro Riff- (3:36 - 3:59)

  Guitars I + II:
D|----------------|----------------|----------------|
A|----------------|----------------|----------------|
F|----------------|----------------|----------------|
C|0---------------|----------------|----------------|
G|0---------------|----------------|5---------------|
C|0---------------|----------------|3---------------|

D|------------------------|----------------|----------------|
A|------------------------|----------------|----------------|
F|------------------------|----------------|----------------|
C|------------------------|----------------|----------------|
G|3---5---3---2---0---2---|1---------------|----------------|
C|3---5---3---2---0---2---|0---------------|----------------|
PM.   .   .   .   .   .

D|------------------------|------------------------|----------------|
A|------------------------|------------------------|----------------|
F|------------------------|------------------------|----------------|
C|------------------------|------------------------|0---------------|
G|7---5---7---5---3---5---|3---2---0---2---0---2---|0---------------|
C|7---5---7---5---3---5---|3---2---0---2---0---2---|0---------------|
PM.   .   .   .   .   .    .   .   .   .   .   .

D|----------------|-----------------|------------------------|
A|----------------|-----------------|------------------------|
F|----------------|-----------------|------------------------|
C|----------------|-----------------|------------------------|
G|----------------|10---------------|7---8---7---5---7---5---|
C|----------------|-8---------------|7---8---7---5---7---5---|
PM                                   .   .   .   .   .   .

D|----------------|----------------|------------------------|
A|----------------|----------------|------------------------|
F|----------------|----------------|------------------------|
C|----------------|----------------|------------------------|
G|4---------------|----------------|3---2---3---5---3---5---|
C|2---------------|----------------|3---2---3---5---3---5---|
PM                                  .   .   .   .   .   .

D|------------------------|
A|------------------------|
F|------------------------|
C|------------------------|
G|7---5---3---5---3---2---|
C|7---5---3---5---3---2---|
PM.   .   .   .   .   .


===============================================================================
-Outro Breakdown- (3:59 - end)

  Guitars I + II: (yes, these are triplets...this is pretty hard to play)
D|--------------------------------|--------------------------------|
A|--------------------------------|--------------------------------|
F|--------------------------------|--------------------------------|
C|--------------------------------|--------------------------------|
G|000---*--------000---000---000--|-000---*-------000---000---000--|
C|000---*--------000---000---000--|-000---*-------000---000---000--|
PM...            ...   ...   ...    ...           ...   ...   ...        x4

D|--------------------------------|--------------------------------|
A|--------------------------------|--------------------------------|
F|--------------------------------|--------------------------------|
C|--------------------------------|--------------------------------|
G|-000---000--*----000---000---*--|-000--000--000--*----000--000---|
C|-000---000--*----000---000---*--|-000--000--000--*----000--000---|
PM ...   ...       ...   ...        ...  ...  ...       ...  ...

                                  THEN

D|--------|--------|--------|--------|--------|--------|
A|--------|--------|--------|--------|--------|--------|
F|--------|--------|--------|--------|--------|--------|
C|0-------|--------|--------|--------|--------|--------|
G|0-------|--------|--------|--------|--------|--------|
C|0-------|--------|--------|--------|--------|--------|

D|--------------------------------|--------------------------------|
A|--------------------------------|--------------------------------|
F|--------------------------------|--------------------------------|
C|--------------------------------|--------------------------------|
G|0---------------0-----0-----0---|--0-------------0-----0-----0---|
C|1---------------1-----1-----1---|--1-------------1-----1-----1---|
PM.               .     .     .      .             .     .     . 

D|--------------------------------|--------------------------------|
A|--------------------------------|--------------------------------|
F|--------------------------------|--------------------------------|
C|--------------------------------|--------------------------------|
G|--0-----0---------0-----0-------|--0----0----0---------0----0----|
C|--1-----1---------1-----1-------|--1----1----1---------1----1----|
PM  .     .         .     .          .    .    .         .    .

D|--------------------------------|--------------------------------|
A|--------------------------------|--------------------------------|
F|--------------------------------|--------------------------------|
C|--------------------------------|--------------------------------|
G|0---------------0-----0-----0---|--0-------------0-----0-----0---|
C|0---------------0-----0-----0---|--0-------------0-----0-----0---|
PM.               .     .     .      .             .     .     . 

D|--------------------------------|--------------------------------|
A|--------------------------------|--------------------------------|
F|--------------------------------|--------------------------------|
C|--------------------------------|--------------------------------|
G|--0-----0---------0-----0-------|--0----0----0---------0----0----|
C|--0-----0---------0-----0-------|--0----0----0---------0----0----|
PM  .     .         .     .          .    .    .         .    .

D|--------------------------------|--------------------------------|
A|--------------------------------|--------------------------------|
F|--------------------------------|--------------------------------|
C|--------------------------------|--------------------------------|
G|0---------------0-----0-----0---|--0-------------0-----0-----0---|
C|1---------------1-----1-----1---|--1-------------1-----1-----1---|
PM.               .     .     .      .             .     .     . 

D|--------------------------------|--------------------------------|
A|--------------------------------|--------------------------------|
F|--------------------------------|--------------------------------|
C|--------------------------------|--------------------------------|
G|--0-----0---------0-----0-------|--0----0----0---------0----0----|
C|--1-----1---------1-----1-------|--1----1----1---------1----1----|
PM  .     .         .     .          .    .    .         .    .

D|----------------|
A|----------------|
F|----------------|
C|----------------|
G|0-*-------------|
C|0-*-------------|


Phew!  That took a while.  Please rate/comment :)


            
            
Suggest correction
Creating personal tab
Creating personal tab
You can edit any tab online and save it as your Personal.

You can edit, replace or remove any tab part or add personal notes – all changes will be seen only by you.

Personal tabs can be accessed anytime from any device, even offline.
Learn more »
comments
print report bad tab
15 comments total. Showing first comments.
+2 reply
MetalorDIE 10 Jul 11, 2007 09:28 AM

i think it's a great tab! good work! the time you took to make this tab is definitly appreciated! think ull do any other ones?

+2 reply
THEhardcoreSIHT 122 Jul 11, 2007 09:43 AM

wow thats great ive been waiting for someone to tab this correctly with the solo, awesome tab

+1 reply
deaththrashcore 436 Jul 11, 2007 10:44 AM

I think like only a few notes are off but other than that it's perfect! 5*

guest
You may want to rate the tab now too:
select rating
Wanna post a correction for this tab? Suggest correction