Oops, an error
Loading. Please wait.

Hester Prynne tab

version 3
version 3

Interactive

1,636 views 1 this week
4 commentsread comments
1 2 3 4 5
1 last vote to show rating
add to favorites
×
Save as Personal and add changes to this tab that will be seen only by you. Learn more ›
×
You can save this tab as Personal to edit and correct it or add notes. All changes will be seen only by you. Learn more »
launch autoscroll
font size
0
reset
how to read this tab
guitar tuner
edit
Autoscroll
slow
fast
+/-
esc
set tempo
stop
Hester Prynne -As Blood runs black
Tabbed by: Ben Rickman
Email: benrickman123@yahoo.com

Tuning: Drop C (CGCFAD)

Intro

D|--------------------------------------------------------|
A|--------------------------------------------------------|
F|--------------------7h10--------------------------------|
C|------6h9-7h10-8h11------7h10-6h9-----------------------|
G|-0-6h9--------------------------------------------------|
C|-0------------------------------------------------------|

D|--------------------------------------------------------|
A|--------------------------------------------------------|
F|--------------------7h10--------------------------------|
C|------6h9-7h10-8h11------7h10-6h9-----------------------|
G|-0-6h9--------------------------------------------------|
C|-0------------------------------------------------------|

D|--------------------------------------------------------------------|
A|--------------------------------------------------------------------|
F|------------------------------------------------7h10----------------|
C|-----7h10-6h9----7h10-6h9----7h10----7h10-6h9---------8h11-7h10-----|
G|--------------------------------------------------------------------|
C|--------------------------------------------------------------------|

Then move every thing up one string...(play this part twice)

D|-------------------------------------------------------|
A|--------------------7h10-------------------------------|
F|-------6h9-7h10-8h11------7h10-6h9---------------------|
C|---6h9-------------------------------------------------|
G|-0-----------------------------------------------------|
C|-0-----------------------------------------------------|

D|-------------------------------------------------------|
A|--------------------7h10-------------------------------|
F|-------6h9-7h10-8h11------7h10-6h9---------------------|
C|---6h9-------------------------------------------------|
G|-0-----------------------------------------------------|
C|-0-----------------------------------------------------|

D|--------------------------------------------------------------------|
A|------------------------------------------------7h10----------------|
F|-----7h10-6h9----7h10-6h9----7h10----7h10-6h9---------8h11-7h10-----|
C|--------------------------------------------------------------------|
G|--------------------------------------------------------------------|
C|--------------------------------------------------------------------|

This next part is simple and is the same thing just up one string each time

Riff I

D|--------------------------------------------------------------------|
A|--------------------------------------------------------------------|
F|--------------------------------------------------------------------|
C|--------------------------------------------------------------------|
G|---5h8p5-5h8p5--4h7p4-4h7p4--5h8p5-5h8p5--4h7p4-4h7p4---------------|
C|--------------------------------------------------------------------|

D|--------------------------------------------------------------------|
A|--------------------------------------------------------------------|
F|--------------------------------------------------------------------|
C|--------------------------------------------------------------------|
G|---7h10p7-7h10p7--6h9p9-6h9p6--7h10p7-7h10p7--6h9p9-6h9p6-----------|
C|--------------------------------------------------------------------|

Move up a string and then move up a string again.

Breakdown I, just listen to the song.

Riff II

D|--------------------------------------------------|
A|--------------------------------------------------|
F|--------------------------------------------------|
C|-------5p3-------------------7p5------------------|
G|-5-5p3-----5p3h5p3-----8-8p5-----8p5h7p5-3--------|
C|-------------------5------------------------------|

The riff slows down and changes slightly and the harmonics come in to, but it resumes afterward.

Intro again

Breakdown II

D|----------------------------------------|
A|----------------------------------------|
F|----------------------------------------|
C|-----------------------------------6*b--|
G|--000-0-000-000-5*b--000-0-000-000------|
C|--000-0-000-000------000-0-000-000------|

D|------------------------------12h16p12----------------|
A|---------------------------14----------14-------------|
F|------------------------13----------------13----------|
C|---------------------14----------------------14-------|
G|--000-0-000-000---16----------------------------16----|
C|--000-0-000-000---------------------------------------|

D|------------------------|
A|------------------------|
F|------------------------|
C|------------------------|
G|--000-0-000-000-5*b-----|
C|--000-0-000-000---------|


D|------------------------------12h16p12----------------|
A|---------------------------14----------14-------------|
F|------------------------13----------------13----------|
C|---------------------14----------------------14-------|
G|--000-0-000-000---16----------------------------16----|
C|--000-0-000-000---------------------------------------|

D|------------------------|
A|------------------------|
F|------------------------|
C|----------------6*b-----|
G|--000-0-000-000---------|
C|--000-0-000-000---------|

D|------------------------------------------------|
A|------------------------------------------------|
F|------------------------------------------------|
C|------------------------------------------------|
G|--000-0-000-000-----------000-0-000-000---------|
C|--000-0-000-000-----------000-0-000-000---------|

Riff 3 (Play 4x)

D|-----------------------------------------------|
A|-----------------------------------------------|
F|-----------------------------------------------|
C|-----------------------------5*----------------|
G|-7-7p5---7-7p5---7-7p5---8p5-------------------|
C|-------7-------7-------7-----------------------|

Riff 4

D|-----------------------------------------------|
A|-----------------------------------------------|
F|------------------------9*---------------------|
C|---------5*------------------------------------|
G|--8-7-5-----4*--12-10-8----7*------------------|
C|-----------------------------------------------|

Mini-Breakdown

D|---------------------------------|
A|---------------------------------|
F|------------------------9*-------|
C|----------5*---------------------|
G|-------------4*------------7*----|
C|-0-111-0--------0-111-0----------|

D|-----------|
A|-----------|
F|-----------|
C|--3~-2-----|
G|--3~-2-----|
C|--3~-2-----|

Breakdown I (again)


| /  slide up
| \  slide down
| h  hammer-on
| p  pull-off
| ~  ring out
| *  harmonic
| x  Mute note

            
            
Suggest correction
Creating personal tab
Creating personal tab
You can edit any tab online and save it as your Personal.

You can edit, replace or remove any tab part or add personal notes – all changes will be seen only by you.

Personal tabs can be accessed anytime from any device, even offline.
Learn more »
Give kudos to tab author, rate the tab!
1 2 3 4 5
comments
print report bad tab
4 comments total. Showing first comments.
0 reply
deaththrashcore 436 Jun 12, 2007 01:38 PM

This tab is HORRIBLE. It's missing ALL of the pedal notes, only has one guitar tabbed, and most of the notes sound completely off. You left out all of the palm mutes. Also, the breakdown at the end is obviously not the same as the first one.

0 reply
deaththrashcore 436 Jun 12, 2007 01:40 PM

Also the beggining of the second breakdown (the one using sweeps), Ernie play the first half of the riff and Sal plays the second.

0 reply
deaththrashcore 436 Jun 15, 2007 06:43 PM

AND you have pull offs that should be hammer ons in some riffs.

guest
Wanna post a correction for this tab? Suggest correction