Oops, an error
Loading. Please wait.

Hester Prynne tab

version 4
version 4

Interactive

24,346 views 1 this week
3 commentsread comments
1 2 3 4 5
x 8
add to favorites
×
Save as Personal and add changes to this tab that will be seen only by you. Learn more ›
×
You can save this tab as Personal to edit and correct it or add notes. All changes will be seen only by you. Learn more »
launch autoscroll
font size
0
reset
how to read this tab
guitar tuner
edit
Autoscroll
slow
fast
+/-
esc
set tempo
stop
Song: Hester Prynne
Artist: As Blood Runs Black
Album: Allegiance

Hester Prynne/As Blood Runs Black/Allegiance

   Guitar I
D||----------------------------------------------------|
A||----------------------------------------------------|
F||----------------------------------------------------|
C||----------------------------------------------------|
G||----------------------------------------------------|
C||-00-------------------------------------------------|
PM|-xx-------------------------------------------------|
 ||
 ||Guitar II
D||-----------------------------------|
A||-----------------------------------|
F||-----------------------------------|
C||-----------------------------------|
G||----5p4-7p5-8p5-10p8-12p8-10p8-8p7-|
C||-00--------------------------------|
PM|-xx--------------------------------|

   Guitar I
D||----------------------------------------------------|
A||----------------------------------------------------|
F||----------------------------------------------------|
C||----------------------------------------------------|
G||-0~---------------------------------------------19\-|
C||-0~---------------------------------------------20\-|
 ||
 ||Guitar II
D||-----------------------------------|
A||-----------------------------------|
F||-----------------------------------|
C||-----------------------------------|
G||----5p4-7p5-8p5-10p8-12p8-10p8-8p7-|
C||-00--------------------------------|
PM|-xx--------------------------------|

   Guitar I
D||----------------------------------------------------------------|
A||----------------------------------------------------------------|
F||----------------------------------------------------------------|
C||----------------------------------------------------------------|
G||----------------------------------------------------------------|
C||-8----------8-----------------10-----------10-------------------|
 ||
 ||Guitar II
D||----------------------------------------------------------------|
A||----------------------------------------------------------------|
F||----------------------------------------------------------------|
C||----------------------------------------------------------------|
G||----7p5-8p5----7p5-8p5----8p5------7p5-8p5------7p5-8p5-7p5-5p4-|
C||-88---------88---------88-----1010---------1010-----------------|
PM|-xx---------xx---------xx------x-x----------x-x-----------------|

   Guitar I
D||----------------------------------------|
A||----------------------------------------|
F||----7p6-9p7-10p7-12p10-14p10-12p10-10p9-|
C||----------------------------------------|
G||----------------------------------------|
C||-00-------------------------------------|
PM|-xx-------------------------------------|
 ||
 ||Guitar II
D||-----------------------------------|
A||-----------------------------------|
F||-----------------------------------|
C||-----------------------------------|
G||----5p4-7p5-8p5-10p8-12p8-10p8-8p7-|
C||-00--------------------------------|
PM|-xx--------------------------------|

   Guitar I
D||----------------------------------------|
A||----------------------------------------|
F||----7p6-9p7-10p7-12p10-14p10-12p10-10p9-|
C||----------------------------------------|
G||----------------------------------------|
C||-00-------------------------------------|
PM|-xx-------------------------------------|
 ||
 ||Guitar II
D||-----------------------------------|
A||-----------------------------------|
F||-----------------------------------|
C||-----------------------------------|
G||----5p4-7p5-8p5-10p8-12p8-10p8-8p7-|
C||-00--------------------------------|
PM|-xx--------------------------------|

   Guitar I
D||---------------------------------------------------------------------|
A||---------------------------------------------------------------------|
F||----9p7-10p7----9p7-10p7----10p7------9p7-10p7------9p7-10p7-9p7-7p6-|
C||---------------------------------------------------------------------|
G||---------------------------------------------------------------------|
C||-88----------88----------88------1010----------1010------------------|
PM|-xx----------xx----------xx-------x-x-----------x-x------------------|
 ||
 ||Guitar II
D||----------------------------------------------------------------|
A||----------------------------------------------------------------|
F||----------------------------------------------------------------|
C||----------------------------------------------------------------|
G||----7p5-8p5----7p5-8p5----8p5------7p5-8p5------7p5-8p5-7p5-5p4-|
C||-88---------88---------88-----1010---------1010-----------------|
PM|-xx---------xx---------xx------x-x----------x-x-----------------|

   Guitar I
D||----------------------------------------|
A||----------------------------------------|
F||----7p6-9p7-10p7-12p10-14p10-12p10-10p9-|
C||----------------------------------------|
G||----------------------------------------|
C||-00-------------------------------------|
PM|-xx-------------------------------------|
 ||
 ||Guitar II
D||----------------------------------------------------|
A||----------------------------------------------------|
F||----------------------------------------------------|
C||----------------------------------------------------|
G||----5p4h5-7p5h7-8p5h8-10p8h10-12p8h12-10p8h10-8p7h8-|
C||-00-------------------------------------------------|
PM|-xx-------------------------------------------------|

   Guitar I
D||----------------------------------------|
A||----------------------------------------|
F||----7p6-9p7-10p7-12p10-14p10-12p10-10p9-|
C||----------------------------------------|
G||----------------------------------------|
C||-00-------------------------------------|
PM|-xx-------------------------------------|
 ||
 ||Guitar II
D||----------------------------------------------------|
A||----------------------------------------------------|
F||----------------------------------------------------|
C||----------------------------------------------------|
G||----5p4h5-7p5h7-8p5h8-10p8h10-12p8h12-10p8h10-8p7h8-|
C||-00-------------------------------------------------|
PM|-xx-------------------------------------------------|

   Guitar I
D||---------------------------------------------------------------------|
A||---------------------------------------------------------------------|
F||----9p7-10p7----9p7-10p7----10p7------9p7-10p7------9p7-10p7-9p7-7p6-|
C||---------------------------------------------------------------------|
G||---------------------------------------------------------------------|
C||-88----------88----------88------1010----------1010------------------|
PM|-xx----------xx----------xx-------x-x-----------x-x------------------|
 ||
 ||Guitar II
D||----------------------------------------------------------------|
A||----------------------------------------------------------------|
F||----------------------------------------------------------------|
C||----------------------------------------------------------------|
G||----7p5-8p5----7p5-8p5----8p5------7p5-8p5------7p5-8p5-7p5-5p4-|
C||-88---------88---------88-----1010---------1010-----------------|
PM|-xx---------xx---------xx------x-x----------x-x-----------------|

   Guitar I
D||-----------------------------------------------------------------|
A||-----------------------------------------------------------------|
F||-----------------------------------------------------------------|
C||-----------------------------------------------------------------|
G||-----------------------------------------------------------------|
C||-----------------------------------------------------------------|
 ||
 ||Guitar II
D||-----------------------------------------------------------------|
A||-----------------------------------------------------------------|
F||-----------------------------------------------------------------|
C||-----------------------------------------------------------------|
G||-5h8-5h8---------5h8-5h8---------4h7-4h7---------4h7-4h7---------|
C||---------5h8-5h8---------5h8-5h8---------4h7-4h7---------4h7-4h7-|

   Guitars I, II
D||-----------------------------------------------------------------|
A||-----------------------------------------------------------------|
F||-----------------------------------------------------------------|
C||-----------------------------------------------------------------|
G||-5h8-5h8---------5h8-5h8---------4h7-4h7---------4h7-4h7---------|
C||---------5h8-5h8---------5h8-5h8---------4h7-4h7---------4h7-4h7-|

   Guitar I
D||---------------------------------------------------------------------|
A||---------------------------------------------------------------------|
F||-7h10-7h10---------7h10-7h10---------6h9-6h9---------6h9-6h9---------|
C||-----------5h8-5h8-----------5h8-5h8---------4h7-4h7---------4h7-4h7-|
G||---------------------------------------------------------------------|
C||---------------------------------------------------------------------|
 ||
 ||Guitar II
D||-----------------------------------------------------------------|
A||-----------------------------------------------------------------|
F||-----------------------------------------------------------------|
C||-----------------------------------------------------------------|
G||-5h8-5h8---------5h8-5h8---------4h7-4h7---------4h7-4h7---------|
C||---------5h8-5h8---------5h8-5h8---------4h7-4h7---------4h7-4h7-|

   Guitar I
D||---------------------------------------------------------------------|
A||---------------------------------------------------------------------|
F||-7h10-7h10---------7h10-7h10---------6h9-6h9---------6h9-6h9---------|
C||-----------5h8-5h8-----------5h8-5h8---------4h7-4h7---------4h7-4h7-|
G||---------------------------------------------------------------------|
C||---------------------------------------------------------------------|
 ||
 ||Guitar II
D||-----------------------------------------------------------------|
A||-----------------------------------------------------------------|
F||-----------------------------------------------------------------|
C||-----------------------------------------------------------------|
G||-5h8-5h8---------5h8-5h8---------4h7-4h7---------4h7-4h7---------|
C||---------5h8-5h8---------5h8-5h8---------4h7-4h7---------4h7-4h7-|

   Guitars I, II
D||---------------------------------------------------------------------|
A||---------------------------------------------------------------------|
F||-7h10-7h10---------7h10-7h10---------6h9-6h9---------6h9-6h9---------|
C||-----------5h8-5h8-----------5h8-5h8---------4h7-4h7---------4h7-4h7-|
G||---------------------------------------------------------------------|
C||---------------------------------------------------------------------|

   Guitars I, II
D||---------------------------------------------------------------------|
A||---------------------------------------------------------------------|
F||-7h10-7h10---------7h10-7h10---------6h9-6h9---------6h9-6h9---------|
C||-----------5h8-5h8-----------5h8-5h8---------4h7-4h7---------4h7-4h7-|
G||---------------------------------------------------------------------|
C||---------------------------------------------------------------------|

   Guitars I, II
D||---------------------------------------------------------------------------|
A||---------------------------------------------------------------------------|
F||---------------------------------------------------------------------------|
C||---------------------------------------------------------------------------|
G||-0000000000000000-000-000-000-000-----0000000000000000-000-000-000-000-----|
C||-0000000000000000-000-000-000-000-----0000000000000000-000-000-000-000-----|
PM|-xxxxxxxxxxxxxxxx-xxx-xxx-xxx-xxx-----xxxxxxxxxxxxxxxx-xxx-xxx-xxx-xxx-----|

   Guitars I, II
D||---------------------------------------------------------------------------|
A||---------------------------------------------------------------------------|
F||---------------------------------------------------------------------------|
C||---------------------------------------------------------------------------|
G||-0000000000000000-000-000-000-000-----0000000000000000-000-000-000-000-----|
C||-0000000000000000-000-000-000-000-----0000000000000000-000-000-000-000-13\-|
PM|-xxxxxxxxxxxxxxxx-xxx-xxx-xxx-xxx-----xxxxxxxxxxxxxxxx-xxx-xxx-xxx-xxx-----|

   Guitar I
D||----------------------------------------------------------------|
A||----------------------------------------------------------------|
F||----------------------------------------------------------------|
C||--------------------------------------------------7-5-----------|
G||--------------------------------------8---7h8---------8-7-8-7-5-|
C||----------------------------------8-8---8-----8-8---------------|
PM|----------------------------------x-x---x-----x-x---------------|
 ||
 ||Guitar II
D||----------------------------------------------------------------|
A||----------------------------------------------------------------|
F||----------------------------------------------------------------|
C||--------------------------------------------------7-5-----------|
G||-----5---3h5---5-----3h5p3------------8---7h8---------8-7-8-7-5-|
C||-0-0---0-----0---0-0-------5-3-2--8-8---8-----8-8---------------|
PM|-x-x---x-----x---x-x--------------x-x---x-----x-x---------------|

   Guitars I, II
D||----------------------------------------------------------------|
A||----------------------------------------------------------------|
F||----------------------------------------------------------------|
C||--------------------------------------------------7-5-----------|
G||-----5---3h5---5-----3h5p3------------8---7h8---------8-7-8-7-5-|
C||-0-0---0-----0---0-0-------5-3-2--8-8---8-----8-8---------------|
PM|-x-x---x-----x---x-x--------------x-x---x-----x-x---------------|

   Guitar I
D||------------------------------------------------------------------------|
A||------------------------------------------------------------------------|
F||------------------------------------------------------------------------|
C||-----------------------------------------------------10-8---------------|
G||-----5---3h5---5-----3h5p3------------12---10h12----------12-10-12-10-8-|
C||-0-0---0-----0---0-0-------5-3-2--8-8----8-------8-8--------------------|
PM|-x-x---x-----x---x-x--------------x-x----x-------x-x--------------------|
 ||
 ||Guitar II
D||----------------------------------------------------------------|
A||----------------------------------------------------------------|
F||----------------------------------------------------------------|
C||--------------------------------------------------7-5-----------|
G||-----5---3h5---5-----3h5p3------------8---7h8---------8-7-8-7-5-|
C||-0-0---0-----0---0-0-------5-3-2--8-8---8-----8-8---------------|
PM|-x-x---x-----x---x-x--------------x-x---x-----x-x---------------|

   Guitar I
D||------------------------------------------------------------------------|
A||------------------------------------------------------------------------|
F||------------------------------------------------------------------------|
C||-----------------------------------------------------10-8---------------|
G||-----5---3h5---5-----3h5p3------------12---10h12----------12-10-12-10-8-|
C||-0-0---0-----0---0-0-------5-3-2--8-8----8-------8-8--------------------|
PM|-x-x---x-----x---x-x--------------x-x----x-------x-x--------------------|
 ||
 ||Guitar II
D||----------------------------------------------------------------|
A||----------------------------------------------------------------|
F||----------------------------------------------------------------|
C||--------------------------------------------------7-5-----------|
G||-----5---3h5---5-----3h5p3------------8---7h8---------8-7-8-7-5-|
C||-0-0---0-----0---0-0-------5-3-2--8-8---8-----8-8---------------|
PM|-x-x---x-----x---x-x--------------x-x---x-----x-x---------------|

   Guitars I, II
D||-----------------------------------------------------------|
A||-----------------------------------------------------------|
F||-----------------------------------------------------------|
C||--------------------------3*---------------------------7*--|
G||-----5---3h5~-----5---3-5---------8---7h8~-----8---7-8-----|
C||-0-0---0--------0---0---------8-8---8--------8---8---------|
PM|-x-x---x--------x-x-x-x-x-----x-x---x--------x-x-x-x-x-----|

   Guitars I, II
D||--------------------------------------------------------------|
A||--------------------------------------------------------------|
F||--------------------------------------------------------------|
C||--------------------------------------------------------------|
G||-----5---3h5-----5---8---5---3------8---7h8---8---10---8---7--|
C||-0-0---0-----0-0---0---0---0----8-8---8-----8---8----8---8----|
PM|-x-x---x-----x-x---x---x---x----x-x---x-----x---x----x---x----|

   Guitars I, II
D||----------------------------------------------------------------|
A||----------------------------------------------------------------|
F||----------------------------------------------------------------|
C||--------------------------------------------------7-5-----------|
G||-----5---3h5---5-----3h5p3------------8---7h8---------8-7-8-7-5-|
C||-0-0---0-----0---0-0-------5-3-2--8-8---8-----8-8---------------|
PM|-x-x---x-----x---x-x--------------x-x---x-----x-x---------------|

   Guitars I, II
D||----------------------------------------------------------------|
A||----------------------------------------------------------------|
F||----------------------------------------------------------------|
C||--------------------------------------------------7-5-----------|
G||-----5---3h5---5-----3h5p3------------8---7h8---------8-7-8-7-5-|
C||-0-0---0-----0---0-0-------5-3-2--8-8---8-----8-8---------------|
PM|-x-x---x-----x---x-x--------------x-x---x-----x-x---------------|

   Guitar I
D||------------------------------------------------------------------------|
A||------------------------------------------------------------------------|
F||------------------------------------------------------------------------|
C||-----------------------------------------------------10-8---------------|
G||-----5---3h5---5-----3h5p3------------12---10h12----------12-10-12-10-8-|
C||-0-0---0-----0---0-0-------5-3-2--8-8----8-------8-8--------------------|
PM|-x-x---x-----x---x-x--------------x-x----x-------x-x--------------------|
 ||
 ||Guitar II
D||----------------------------------------------------------------|
A||----------------------------------------------------------------|
F||----------------------------------------------------------------|
C||--------------------------------------------------7-5-----------|
G||-----5---3h5---5-----3h5p3------------8---7h8---------8-7-8-7-5-|
C||-0-0---0-----0---0-0-------5-3-2--8-8---8-----8-8---------------|
PM|-x-x---x-----x---x-x--------------x-x---x-----x-x---------------|

   Guitar I
D||------------------------------------------------------------------------|
A||------------------------------------------------------------------------|
F||------------------------------------------------------------------------|
C||-----------------------------------------------------10-8---------------|
G||-----5---3h5---5-----3h5p3------------12---10h12----------12-10-12-10-8-|
C||-0-0---0-----0---0-0-------5-3-2--8-8----8-------8-8--------------------|
PM|-x-x---x-----x---x-x--------------x-x----x-------x-x--------------------|
 ||
 ||Guitar II
D||----------------------------------------------------------------|
A||----------------------------------------------------------------|
F||----------------------------------------------------------------|
C||--------------------------------------------------7-5-----------|
G||-----5---3h5---5-----3h5p3------------8---7h8---------8-7-8-7-5-|
C||-0-0---0-----0---0-0-------5-3-2--8-8---8-----8-8---------------|
PM|-x-x---x-----x---x-x--------------x-x---x-----x-x---------------|

   Guitars I, II
D||----------------------------------------------------|
A||----------------------------------------------------|
F||----------------------------------------------------|
C||----------------------------------------------------|
G||----5p4h5-7p5h7-8p5h8-10p8h10-12p8h12-10p8h10-8p7h8-|
C||-00-------------------------------------------------|
PM|-xx-------------------------------------------------|

   Guitars I, II
D||----------------------------------------------------|
A||----------------------------------------------------|
F||----------------------------------------------------|
C||----------------------------------------------------|
G||----5p4h5-7p5h7-8p5h8-10p8h10-12p8h12-10p8h10-8p7h8-|
C||-00-------------------------------------------------|
PM|-xx-------------------------------------------------|

   Guitars I, II
D||----------------------------------------------------------------|
A||----------------------------------------------------------------|
F||----------------------------------------------------------------|
C||----------------------------------------------------------------|
G||----7p5-8p5----7p5-8p5----8p5------7p5-8p5------7p5-8p5-7p5-5p4-|
C||-88---------88---------88-----1010---------1010-----------------|
PM|-xx---------xx---------xx------x-x----------x-x-----------------|

   Guitar I
D||----------------------------------------|
A||----------------------------------------|
F||----7p6-9p7-10p7-12p10-14p10-12p10-10p9-|
C||----------------------------------------|
G||----------------------------------------|
C||-00-------------------------------------|
PM|-xx-------------------------------------|
 ||
 ||Guitar II
D||-----------------------------------|
A||-----------------------------------|
F||-----------------------------------|
C||-----------------------------------|
G||----5p4-7p5-8p5-10p8-12p8-10p8-8p7-|
C||-00--------------------------------|
PM|-xx--------------------------------|

   Guitar I
D||----------------------------------------|
A||----------------------------------------|
F||----7p6-9p7-10p7-12p10-14p10-12p10-10p9-|
C||----------------------------------------|
G||----------------------------------------|
C||-00-------------------------------------|
PM|-xx-------------------------------------|
 ||
 ||Guitar II
D||-----------------------------------|
A||-----------------------------------|
F||-----------------------------------|
C||-----------------------------------|
G||----5p4-7p5-8p5-10p8-12p8-10p8-8p7-|
C||-00--------------------------------|
PM|-xx--------------------------------|

   Guitar I
D||---------------------------------------------------------------------|
A||---------------------------------------------------------------------|
F||----9p7-10p7----9p7-10p7----10p7------9p7-10p7------9p7-10p7-9p7-7p6-|
C||---------------------------------------------------------------------|
G||---------------------------------------------------------------------|
C||-88----------88----------88------1010----------1010------------------|
PM|-xx----------xx----------xx-------x-x-----------x-x------------------|
 ||
 ||Guitar II
D||----------------------------------------------------------------|
A||----------------------------------------------------------------|
F||----------------------------------------------------------------|
C||----------------------------------------------------------------|
G||----7p5-8p5----7p5-8p5----8p5------7p5-8p5------7p5-8p5-7p5-5p4-|
C||-88---------88---------88-----1010---------1010-----------------|
PM|-xx---------xx---------xx------x-x----------x-x-----------------|

   Guitar I
D||-------------------------------------------------------------|
A||-------------------------------------------------------------|
F||-------------------------------------------------------------|
C||-------------------------------------------------------------|
G||-000--0--000--000--000--0--4*--------------------------------|
C||-000--0--000--000--000--0------------------------------------|
PM|-xxx--x--xxx--xxx--xxx--x------------------------------------|
 ||
 ||Guitar II
D||-------------------------------------------------------------|
A||-------------------------------------------------------------|
F||-------------------------------------------------------------|
C||-------------------------------------------------------------|
G||-------------------------------000--0--000--000--000--0--4*--|
C||-------------------------------000--0--000--000--000--0------|
PM|-------------------------------xxx--x--xxx--xxx--xxx--x------|

   Guitars I, II
D||-----------------------------------13h17p13-------------------------------------|
A||--------------------------------15----------15----------------------------------|
F||-----------------------------14----------------14-------------------------------|
C||--------------------------15----------------------------------------------------|
G||-000--0--000--000--000--0-------------------------000--0--000--000--000--0--4*--|
C||-000--0--000--000--000--0-------------------------000--0--000--000--000--0------|
PM|-xxx--x--xxx--xxx--xxx--x-------------------------xxx--x--xxx--xxx--xxx--x------|

   Guitars I, II
D||-----------------------------------13h17p13-------------------------------------|
A||--------------------------------15----------15----------------------------------|
F||-----------------------------14----------------14-------------------------------|
C||--------------------------15----------------------------------------------------|
G||-000--0--000--000--000--0-------------------------000--0--000--000--000--0--4*--|
C||-000--0--000--000--000--0-------------------------000--0--000--000--000--0------|
PM|-xxx--x--xxx--xxx--xxx--x-------------------------xxx--x--xxx--xxx--xxx--x------|

   Guitars I, II
D||---------------------------------------------------------------|
A||---------------------------------------------------------------|
F||---------------------------------------------------------------|
C||---------------------------------------------------------------|
G||-000--0--000--000--000--0-0-----000--0--000--000--000--0-0--7\-|
C||-000--0--000--000--000--0-0-----000--0--000--000--000--0-0--8\-|
PM|-xxx--x--xxx--xxx--xxx--x-x-----xxx--x--xxx--xxx--xxx--x-x-----|

   Guitar I
D||------------------------------------------------------------|
A||------------------------------------------------------------|
F||------------------------------------------------------------|
C||------------------------------------------------------------|
G||--------------------------------------------------------4*--|
C||----------------------------------------------------8-7-----|
 ||
 ||Guitar II
D||------------------------------------------------------------|
A||------------------------------------------------------------|
F||------------------------------------------------------------|
C||------------------------------------------------------------|
G||-----8---5h8p5--------8---5h8p5--------8---5h8p5--------4*--|
C||-0-0---0-------8--0-0---0-------7--0-0---0-------8--8-7-----|
PM|-x-x---x----------x-x---x----------x-x---x------------------|

   Guitars I, II
D||------------------------------------------------------------|
A||------------------------------------------------------------|
F||------------------------------------------------------------|
C||------------------------------------------------------------|
G||-----8---5h8p5--------8---5h8p5--------8---5h8p5--------4*--|
C||-0-0---0-------8--0-0---0-------7--0-0---0-------8--8-7-----|
PM|-x-x---x----------x-x---x----------x-x---x------------------|

   Guitar I
D||------------------------------------------------------------------|
A||------------------------------------------------------------------|
F||------------------------------------------------------------------|
C||------------------------------------------------------------------|
G||-----12---8h12p8--------12---8h12p8--------12---8h12p8--------4*--|
C||-0-0----0--------8--0-0----0--------7--0-0----0--------8--8-7-----|
PM|-x-x----x-----------x-x----x-----------x-x----x-------------------|
 ||
 ||Guitar II
D||------------------------------------------------------------|
A||------------------------------------------------------------|
F||------------------------------------------------------------|
C||------------------------------------------------------------|
G||-----8---5h8p5--------8---5h8p5--------8---5h8p5--------4*--|
C||-0-0---0-------8--0-0---0-------7--0-0---0-------8--8-7-----|
PM|-x-x---x----------x-x---x----------x-x---x------------------|

Guitar I
D||------------------------------------------------------------------|
A||------------------------------------------------------------------|
F||------------------------------------------------------------------|
C||------------------------------------------------------------------|
G||-----12---8h12p8--------12---8h12p8--------12---8h12p8--------4*--|
C||-0-0----0--------8--0-0----0--------7--0-0----0--------8--8-7-----|
PM|-x-x----x-----------x-x----x-----------x-x----x-------------------|
 ||
 ||Guitar II
D||------------------------------------------------------------|
A||------------------------------------------------------------|
F||------------------------------------------------------------|
C||------------------------------------------------------------|
G||-----8---5h8p5--------8---5h8p5--------8---5h8p5--------4*--|
C||-0-0---0-------8--0-0---0-------7--0-0---0-------8--8-7-----|
PM|-x-x---x----------x-x---x----------x-x---x------------------|

   Guitars I, II
D||--------------------------------------------------------------------------------------------|
A||--------------------------------------------------------------------------------------------|
F||--------------------------------------------------------------------------------------------|
C||---------------5*---------------------5*---------------------5*---------------------5*------|
G||-----8---7---5-----4*------10---8---7-----4*-------8---7---5-----4*------10---8---7-----4*--|
C||-0-0---0---0-----------8-8----8---8------------0-0---0---0-----------8-8----8---8-----------|
PM|-x-x---x---x-----------x-x----x---x------------x-x---x---x-----------x-x----x---x-----------|

   Guitars I, II
D||--------------------------------------------------------------------------------|
A||--------------------------------------------------------------------------------|
F||--------------------------------------------------------------------------------|
C||-----------5*-------------------5*-----------------5*-------------------5*------|
G||---888-7-5-----4*----101010-8-7-----4*-----888-7-5-----4*----101010-8-7-----4*--|
C||-0-----------------8---------------------0-----------------8--------------------|
PM|-x-xxx-x-x---------x--x-x-x-x-x----------x-xxx-x-x---------x--x-x-x-x-x---------|

   Guitars I, II
D||-------------------|
A||-------------------|
F||-------------------|
C||-------------------|
G||-8~-------7--------|
C||-8~-------7----20\-|

   Guitars I, II
D||-----------------------------------------------------------------------------|
A||-----------------------------------------------------------------------------|
F||-----------------------------------------------------------------------------|
C||-----------------------------------------------------------------------------|
G||-00000000-00---00---00000000-0-00-00---00000000-00---00---00000000-0-00-00---|
C||-00000000-00---00---00000000-0-00-00---00000000-00---00---00000000-0-00-00---|
PM|-xxxxxxxx-xx---xx---xxxxxxxx-x-xx-xx---xxxxxxxx-xx---xx---xxxxxxxx-x-xx-xx---|

   Guitars I, II
D||-----------------------------------------------------------------------------|
A||-----------------------------------------------------------------------------|
F||-----------------------------------------------------------------------------|
C||-----------------------------------------------------------------------------|
G||-00000000-00---00---00000000-0-00-00---00000000-00---00---00000000-0-00-00---|
C||-00000000-00---00---00000000-0-00-00---00000000-00---00---00000000-0-00-00---|
PM|-xxxxxxxx-xx---xx---xxxxxxxx-x-xx-xx---xxxxxxxx-xx---xx---xxxxxxxx-x-xx-xx---|

   Guitars I, II
D||-----------------------------------------------------------------------------|
A||-----------------------------------------------------------------------------|
F||-----------------------------------------------------------------------------|
C||-----------------------------------------------------------------------------|
G||-00000000-00~--00~--00000000-0-00-00~--00000000-00~--00~--00000000-0-00-00~--|
C||-00000000-00~--00~--00000000-0-00-00~--00000000-00~--00~--00000000-0-00-00~--|
PM|-xxxxxxxx-xx---xx---xxxxxxxx-x-xx-xx---xxxxxxxx-xx---xx---xxxxxxxx-x-xx-xx---|

   Guitars I, II
D||---------------------------------------------------------------------------|
A||---------------------------------------------------------------------------|
F||---------------------------------------------------------------------------|
C||---------------------------------------------------------------------------|
G||-00000000-00~--00~--00000000-0-00-00~--00000000-00~--00~--00000000-0-00-00-|
C||-00000000-00~--00~--00000000-0-00-00~--00000000-00~--00~--00000000-0-00-00-|
PM|-xxxxxxxx-xx---xx---xxxxxxxx-x-xx-xx---xxxxxxxx-xx---xx---xxxxxxxx-x-xx-xx-|

            
            
Suggest correction
Creating personal tab
Creating personal tab
You can edit any tab online and save it as your Personal.

You can edit, replace or remove any tab part or add personal notes – all changes will be seen only by you.

Personal tabs can be accessed anytime from any device, even offline.
Learn more »
comments
print report bad tab
3 comments total.
0 reply
Cha0sThe0ry 31 Feb 13, 2008 03:45 PM

Very nice tab. Thanks for getting it right.

0 reply
iemabeaner 30 Nov 21, 2008 09:47 AM

||----------------------------------------------------------------|
A||----------------------------------------------------------------|
F||----------------------------------------------------------------|
C||----------------------------------------------------------------|
G||----7p5-8p5----7p5-8p5----8p5------7p5-8p5------7p5-8p5-7p5-5p4-|
C||-88---------88---------88-----1010---------1010-----------------|
PM|-xx---------xx---------xx------x-x----------x-x-----------------|


this part is incorrect. it needs to be progressing upwards.. not down.
it should be like
c|----------------------------------------
g|---5h7-5h8----5h7-5h8---------------------------------
c|-88--------88---------1010----------------------

or something like that lol

0 reply
Ronstermonster 128 Apr 07, 2009 10:35 PM

|--------------13H17---------| |----------------------------------|
|-------------15----15-------| |----------------------------------|
|-----------14-------14------| |----------------------------------|
|---------15-----------------| |----------------------------------|
|-------17-------------------| |------2*--------------------------|
|----------------------------| |--or-3*---------------------------|
This is how the C minor This is ROUGHLY where the pinch
breakdown sweep should harmonics should be in the breakdown.

pretty good though=]

guest
You may want to rate the tab now too:
select rating
Wanna post a correction for this tab? Suggest correction