Oops, an error
Loading. Please wait.
We have an official In Dying Days tab made by UG professional guitarists. Check out the tab »
×
691 views 1 this week
no commentswrite comment
1 2 3 4 5
3 more votes to show rating
add to favorites
×
Save as Personal and add changes to this tab that will be seen only by you. Learn more ›
×
You can save this tab as Personal to edit and correct it or add notes. All changes will be seen only by you. Learn more »
launch autoscroll
font size
0
reset
guitar tuner
edit
Autoscroll
slow
fast
+/-
esc
set tempo
stop
Song: In Dying Days
Artist: As Blood Runs Black
Album: Allegiance

Intro:
F||-----------------------------------------------------------------------|
C||-0-------------(0)--------------8-------------------10-------7---------|
G||-0-------------(0)--------------8-------------------10-------7---------|
C||-0-------------(0)--------------8-------------------10-------7---------|

F||---------------------------------------------------------------------|
C||---------------------------------------------------------------------|
G||-5v------5v------8h10---10h12---8h10p8p7-----7778881010108887775554b-|
C||-----000-----000------0-------0-----------888------------------------|

F||---------------------------------------------------------------------------------|
C||---------------------------------------------------------------------------------|
G||-5v------5v------8---7---10---8---7h8p7----------7h8---5h7p5---------5h7---4h5p4-|
C||-----000-----000---0---0----0---0--------8--888------8--------7--777-----7-------|

F||---------------------------------------------------------------------|
C||---------------------------------------------------------------------|
G||-5v------5v------8h10---10h12---8h10p8p7-----7778881010108887775554b-|
C||-----000-----000------0-------0-----------888------------------------|

F||----------------------------------------------------|
C||-0----(0)----(0)----(0)----(0)----(0)----(0)--------|
G||-0----(0)----(0)----(0)----(0)----(0)----(0)--------|
C||-0----(0)----(0)----(0)----(0)----(0)----(0)----20\-|
    	                                       End Intro
Verse I:
F||---------------------------------------------|
C||---------------------------------------------|
G||-5---5---5-8-7-10-8-7-----5-5-5h8----4-4-4h7-|
C||--0-0-0-0-0-0-0--0-0---8-8-8-8----7-7-7-7----|

F||-----------------------------------------------------------|
C||-----------------------------------------------------------|
G||-5---5---5--8h12-8h12-7h10-7h10----7778881010108887775554b-|
C||--0-0-0-0-0---------------------888------------------------|

F||---------------------------------------------|
C||---------------------------------------------|
G||-5---5---5-8-7-10-8-7-----5-5-5h8----4-4-4h7-|
C||--0-0-0-0-0-0-0--0-0---8-8-8-8----7-7-7-7----|

F||-----------------------------------------------------------|
C||-----------------------------------------------------------|
G||-5---5---5--8h12-8h12-7h10-7h10----7778881010108887775554b-|
C||--0-0-0-0-0---------------------888------------------------|
                                                        End Verse I
Verse II:   
F||----------------------------------------------|
C||----------------------------------------------|
G||----5-4h5-5h7-7h8-8h10----8-7h8-8h10-8p7-5p4--|
C||-0-0-0---0---0---0-----8-8-0---0----0---0-----|x2
                                                        End Verse II
Verse III:
F||---------------------------------------------|
C||---------------------------------------------|
G||-5---5---5-8-7-10-8-7-----5-5-5h8----4-4-4h7-|
C||--0-0-0-0-0-0-0--0-0---8-8-8-8----7-7-7-7----|

F||-----------------------------------------------------------|
C||-----------------------------------------------------------|
G||-5---5---5--8h12-8h12-7h10-7h10----7778881010108887775554b-|
C||--0-0-0-0-0---------------------888------------------------|



F||---------------------------------------------|
C||---------------------------------------------|
G||-5---5---5-8-7-10-8-7-----5-5-5h8----4-4-4h7-|
C||--0-0-0-0-0-0-0--0-0---8-8-8-8----7-7-7-7----|

F||-----------------------------------------------------------|
C||-----------------------------------------------------------|
G||-5---5---5--8h12-8h12-7h10-7h10----7778881010108887775554b-|
C||--0-0-0-0-0---------------------888------------------------|
                                                      End Verse III
Verse IV:
F||-----------------------------------------------------------|
C||----------------------------------------121212777-7h8p7-5--|
G||---555777888---555777888---777888101010--------------------|
C||-0-----------7-----------8---------------------------------|x4
                                                   End Verse IV
Breakdown Part I:
F||----------------------------------|
C||----------------------------------|
G||----------------------------------|
C||------------------------------20\-|

F||-------------------------------------------------------------------------|
C||-------------------------------------------------------------------------|
G||-------------------------------------------------------------------------|
C||-0000--0000-0000-0-0000--0000-0000-0-0000--0000-0000-0-0000--0000-0000-0-|

F||--------------------------------------------------------------------------------------------|
C||--------------------------------------------------------------------------------------------|
G||--------------------------------------------------------------------------------------------|
C||-0000--0000-0000-0-0000--0000-0000-0-0000--0000-0000-0-0000--0000-000-0-0--------------11\-|
                                                                                  Breakdown Part I
Breakdown Part II:
F||----------------------------------------------------------------------------|
C||----------------------------------------------------------------------------|
G||----------------------------------------------------------------------------|
C||-0-0-0-0-0----0-0-0-0-0--0-0-0-0-0--0--0-0-0-0-0----0-0-0-0-0--0-0-0-0-0--0-|

F||-----------------------------------------------------------------------------|
C||-----------------------------------------------------------------------------|
G||-----------------------------------------------------------------------------|
C||-0-0-0-0-0----0-0-0-0-0--0-0-0-0-0--0--0-0-0-0-0----0-0-0-0-0--0-0-0-0-0--8\-|

F||----------------------------------------------------------------------------|
C||----------------------------------------------------------------------------|
G||----------------------------------------------------------------------------|
C||-1-1-1-1-1----1-1-1-1-1--1-1-1-1-1--1--1-1-1-1-1----1-1-1-1-1--1-1-1-1-1--1-|
                                                           
F||-----------------------------------------------------------------------------|
C||-----------------------------------------------------------------------------|
G||-----------------------------------------------------------------------------|
C||-0-0-0-0-0----0-0-0-0-0--0-0-0-0-0--0--0-0-0-0-0----0-0-0-0-0--0-0-0-0-0--0--|
                                                            End Breakdown Part II
F||---------------------------|
C||-5-8-7---7-5-----7-5-------|
G||-------8-----8-7-----8-7-5-|
C||---------------------------|

Verse V:
F||--------------------------------------------------------------|
C||--------------------------------------------------------------|
G||--------------------------------------------------------------|
C||--------------------------------------------------------------|


F||--------------------------------------------------------------|
C||--------------------------------------------------------------|
G||----------------------------------------------5h8p5h8-4h7p4h7-|
C||--------------------------------------------------------------|

F||----------------------------------------------|
C||----------------------------------------------|
G||------------------------------5h8p5h8-4h7p4h7-|
C||-0000--0000005h7---0000000--------------------|x2
                                                       End Verse V
Verse VI:
F||--------------------------------------------------------|
C||--------------------------------------------------------|
G||---555444555777555777888777888101010888-5h8p5h8-4h7p4h7-|
C||-0------------------------------------------------------|

F||--------------------------------------------------|
C||--------------------------------------------------|
G||---5554445557775557778887775554b--5h8p5h8-4h7p4h7-|
C||-0------------------------------------------------|
                                          End Verse VI
Verse VII:
F||---------------------------------------------|
C||---------------------------------------------|
G||-5---5---5-8-7-10-8-7-----5-5-5h8----4-4-4h7-|
C||--0-0-0-0-0-0-0--0-0---8-8-8-8----7-7-7-7----|

F||-----------------------------------------------------------|
C||-----------------------------------------------------------|
G||-5---5---5--8h12-8h12-7h10-7h10----7778881010108887775554b-|
C||--0-0-0-0-0---------------------888------------------------|

F||---------------------------------------------|
C||---------------------------------------------|
G||-5---5---5-8-7-10-8-7-----5-5-5h8----4-4-4h7-|
C||--0-0-0-0-0-0-0--0-0---8-8-8-8----7-7-7-7----|

F||-----------------------------------------------------------|
C||-----------------------------------------------------------|
G||-5---5---5--8h12-8h12-7h10-7h10----777888101010888-7--5-4b-|
C||--0-0-0-0-0---------------------888------------------------|
                                                        End Verse VII
Outro:
F||-------------------------------------------------------------------------|
C||-------------------------------------------------------------------------|
G||-5v-----5v-----5/8-7-8-8/10-8-7h8p0-------7h8--5h7p5-------5h7---4h5p4---|
C||-----000----000---------------------8--888-----------7--777--------------|

F||----------------------------------------------------------------------|
C||----------------------------------------------------------------------|
G||-5v-----5v-----8h10-10h12-8h10p8p7---10/12-10-8h10p8---8/10-8-7h8p7---|
C||-----000----000--------------------8-----------------7----------------|

F||-------------------------------------------------------------------------|
C||-------------------------------------------------------------------------|
G||-5v-----5v-----5/8-7-8-8/10-8-7h8p0-------7h8--5h7p5-------5h7---4h5p4---|
C||-----000----000---------------------8--888-----------7--777--------------|

F||----------------------------------------------------------------------|
C||----------------------------------------------------------------------|
G||-5v-----5v-----8h10-10h12-8h10p8p7---10/12-10-8h10p8---8/10-8-7h8p7---|
C||-----000----000--------------------8-----------------7----------------|

F||------------------------------------------------|
C||------------------------------------------------|
G||------------------------------------------------|
C||-0----(0)----(0)----(0)----(0)----(0)----(0)----|

            
            
Suggest correction
Creating personal tab
Creating personal tab
You can edit any tab online and save it as your Personal.

You can edit, replace or remove any tab part or add personal notes – all changes will be seen only by you.

Personal tabs can be accessed anytime from any device, even offline.
Learn more »
Give kudos to tab author, rate the tab!
1 2 3 4 5
comments
print report bad tab
guest
You may want to rate the tab now too:
select rating
Wanna post a correction for this tab? Suggest correction