Oops, an error
Loading. Please wait.
We have an official In Dying Days tab made by UG professional guitarists. Check out the tab »
×
202 views 3 this week
no commentswrite comment
1 2 3 4 5
3 more votes to show rating
add to favorites
×
Save as Personal and add changes to this tab that will be seen only by you. Learn more ›
×
You can save this tab as Personal to edit and correct it or add notes. All changes will be seen only by you. Learn more »
launch autoscroll
font size
0
reset
how to read this tab
guitar tuner
edit
Autoscroll
slow
fast
+/-
esc
set tempo
stop
Ghost Notes = ( )
Palm Mute = •
Pinch Harmonic = *
Slide Up = /
Slide Down = \
Vibrato = v

Intro:
   Guitar I
D||--------------------------------------------------------------------------------|
A||--------------------------------------------------------------------------------|
F||--------------------------------------------------------------------------------|
C||--------------------------------------------------------------------------------|
G||-5v------5v------8---7---10---8---7h8p7---------7h8---5h7p5---------5h7---4h5p4-|
C||-----000-----000---0---0----0---0--------8--888-----8--------7--777-----7-------|
PM|     •••     •••   •   •    •   •           •••     •           •••     •       |
 ||
 ||Guitar II
D||-----------------------------------------------------------------------|
A||-----------------------------------------------------------------------|
F||-----------------------------------------------------------------------|
C||-0-------------(0)--------------8-------------------7------------------|
G||-0-------------(0)--------------8-------------------7---------------7\-|
C||-0-------------(0)--------------8-------------------7---------------8\-|

   Guitar I
D||-------------------------------------------------------------------------------------|
A||-------------------------------------------------------------------------------------|
F||-------------------------------------------------------------------------------------|
C||-------------------------------------------------------------------------------------|
G||-8v------8v------12h13---13h15---12h13p12p10-----1010101212121313131212121010108887*-|
C||-----000-----000-------0-------0--------------888------------------------------------|
PM|     •••     •••       •       •                                                     |
 ||
 ||Guitar II
D||---------------------------------------------------------------------|
A||---------------------------------------------------------------------|
F||---------------------------------------------------------------------|
C||---------------------------------------------------------------------|
G||-5v------5v------8h10---10h12---8h10p8p7-----7778881010108887775554*-|
C||-----000-----000------0-------0-----------888------------------------|
PM|     •••     •••      •       •                                      |

   Guitar I
D||------------------------------------------------------------------------------------------|
A||------------------------------------------------------------------------------------------|
F||------------------------------------------------------------------------------------------|
C||------------------------------------------------------------------------------------------|
G||-8v------8v------12---10---13---12---10h12p10---------10h12---8h10p8---------8h10---7h8p7-|
C||-----000-----000----0----0----0----0----------8--888--------8---------7--777------7-------|
PM|     •••     •••    •    •    •    •             •••        •            •••      •       |
 ||
 ||Guitar II
D||---------------------------------------------------------------------------------|
A||---------------------------------------------------------------------------------|
F||---------------------------------------------------------------------------------|
C||---------------------------------------------------------------------------------|
G||-5v------5v------8---7---10---8---7h8p7----------7h8---5h7p5---------5h7---4h5p4-|
C||-----000-----000---0---0----0---0--------8--888------8--------7--777-----7-------|
PM|     •••     •••   •   •    •   •           •••      •           •••     •       |

   Guitar I
D||-------------------------------------------------------------------------------------|
A||-------------------------------------------------------------------------------------|
F||-------------------------------------------------------------------------------------|
C||-------------------------------------------------------------------------------------|
G||-8v------8v------12h13---13h15---12h13p12p10-----1010101212121313131212121010108887*-|
C||-----000-----000-------0-------0--------------888------------------------------------|
PM|     •••     •••       •       •                                                     |
 ||
 ||Guitar II
D||---------------------------------------------------------------------|
A||---------------------------------------------------------------------|
F||---------------------------------------------------------------------|
C||---------------------------------------------------------------------|
G||-5v------5v------8h10---10h12---8h10p8p7-----7778881010108887775554*-|
C||-----000-----000------0-------0-----------888------------------------|
PM|     •••     •••      •       •                                      |
 
   Guitars I, II
D||----------------------------------------------------|
A||----------------------------------------------------|
F||----------------------------------------------------|
C||-0----(0)----(0)----(0)----(0)----(0)----(0)--------|
G||-0----(0)----(0)----(0)----(0)----(0)----(0)----19\-|
C||-0----(0)----(0)----(0)----(0)----(0)----(0)----20\-|

Verse I:
   Guitars I, II
D||------------------------------------------------------------------|
A||------------------------------------------------------------------|
F||------------------------------------------------------------------|
C||------------------------------------------------------------------|
G||-5-----5---5---8---7---10---8p7------5---5---5h7------4---4---4h5-|
C||---0-0---0---0---0---0----0------8-8---8---8------7-7---7---7-----|
PM|   • •   •   •   •   •    •      • •   •   •      • •   •   •     |

   Guitars I, II
D||---------------------------------------------------------------|
A||---------------------------------------------------------------|
F||---------------------------------------------------------------|
C||---------------------------------------------------------------|
G||-5-----5---5---8h12-8h12-7h10-7h10-----7778881010108887775554*-|
C||---0-0---0---0----------------------888------------------------|
PM|   • •   •   •                                                 |

   Guitar I
D||-----------------------------------------------------------------------|
A||-----------------------------------------------------------------------|
F||-----------------------------------------------------------------------|
C||-----------------------------------------------------------------------|
G||-8-----8---8---12---10---13---12p10------8---8---8h10------7---7---7h8-|
C||---0-0---0---0----0----0----0--------8-8---8---8-------7-7---7---7-----|
PM|   • •   •   •    •    •    •        • •   •   •       • •   •   •     |
 ||
 ||Guitar II
D||------------------------------------------------------------------|
A||------------------------------------------------------------------|
F||------------------------------------------------------------------|
C||------------------------------------------------------------------|
G||-5-----5---5---8---7---10---8p7------5---5---5h7------4---4---4h5-|
C||---0-0---0---0---0---0----0------8-8---8---8------7-7---7---7-----|
PM|   • •   •   •   •   •    •      • •   •   •      • •   •   •     |

   Guitar I
D||------------------------------------------------------------------------------|
A||------------------------------------------------------------------------------|
F||------------------------------------------------------------------------------|
C||------------------------------------------------------------------------------|
G||-8-----8---8---13h15-13h15-10h13-10h13----1010101212121313131212121010108887*-|
C||---0-0---0---0-------------------------888------------------------------------|
PM|   • •   •   •                                                                |
 ||
 ||Guitar II
D||---------------------------------------------------------------|
A||---------------------------------------------------------------|
F||---------------------------------------------------------------|
C||---------------------------------------------------------------|
G||-5-----5---5---8h12-8h12-7h10-7h10-----7778881010108887775554*-|
C||---0-0---0---0----------------------888------------------------|
PM|   • •   •   •                                                 |

Verse II:   
   Guitar I
D||----------------------------------------------------------------|
A||----------------------------------------------------------------|
F||----------------------------------------------------------------|
C||----------------------------------------------------------------|
G||-----5---4h5---5h7---7h8---8h10------8---7h8---8h10---8p7---5p4-|
C||-0-0---0-----0-----0-----0-------0-0---0-----0------0-----0-----|
PM| • •   •     •     •     •       • •   •     •      •     •     |

   Guitars I, II
D||----------------------------------------------------------------|
A||----------------------------------------------------------------|
F||----------------------------------------------------------------|
C||----------------------------------------------------------------|
G||-----5---4h5---5h7---7h8---8h10------8---7h8---8h10---8p7---4*--|
C||-0-0---0-----0-----0-----0-------0-0---0-----0------0-----0-----|
PM| • •   •     •     •     •       • •   •     •      •     •     |

   Guitars I, II
D||----------------------------------------------------------------|
A||----------------------------------------------------------------|
F||----------------------------------------------------------------|
C||----------------------------------------------------------------|
G||-----5---4h5---5h7---7h8---8h10------8---7h8---8h10---8p7---5p4-|
C||-0-0---0-----0-----0-----0-------0-0---0-----0------0-----0-----|
PM| • •   •     •     •     •       • •   •     •      •     •     |

Verse III:
   Guitars I, II
D||------------------------------------------------------------------|
A||------------------------------------------------------------------|
F||------------------------------------------------------------------|
C||------------------------------------------------------------------|
G||-5-----5---5---8---7---10---8p7------5---5---5h7------4---4---4h5-|
C||---0-0---0---0---0---0----0------8-8---8---8------7-7---7---7-----|
PM|   • •   •   •   •   •    •      • •   •   •      • •   •   •     |

   Guitars I, II
D||---------------------------------------------------------------|
A||---------------------------------------------------------------|
F||---------------------------------------------------------------|
C||---------------------------------------------------------------|
G||-5-----5---5---8h12-8h12-7h10-7h10-----7778881010108887775554*-|
C||---0-0---0---0----------------------888------------------------|
PM|   • •   •   •                                                 |

   Guitar I
D||-----------------------------------------------------------------------|
A||-----------------------------------------------------------------------|
F||-----------------------------------------------------------------------|
C||-----------------------------------------------------------------------|
G||-8-----8---8---12---10---13---12p10------8---8---8h10------7---7---7h8-|
C||---0-0---0---0----0----0----0--------8-8---8---8-------7-7---7---7-----|
PM|   • •   •   •    •    •    •        • •   •   •       • •   •   •     |
 ||
 ||Guitar II
D||------------------------------------------------------------------|
A||------------------------------------------------------------------|
F||------------------------------------------------------------------|
C||------------------------------------------------------------------|
G||-5-----5---5---8---7---10---8p7------5---5---5h7------4---4---4h5-|
C||---0-0---0---0---0---0----0------8-8---8---8------7-7---7---7-----|
PM|   • •   •   •   •   •    •      • •   •   •      • •   •   •     |

   Guitar I
D||------------------------------------------------------------------------------|
A||------------------------------------------------------------------------------|
F||------------------------------------------------------------------------------|
C||------------------------------------------------------------------------------|
G||-8-----8---8---13h15-13h15-10h13-10h13----1010101212121313131212121010108887*-|
C||---0-0---0---0-------------------------888------------------------------------|
PM|   • •   •   •                                                                |
 ||
 ||Guitar II
D||---------------------------------------------------------------|
A||---------------------------------------------------------------|
F||---------------------------------------------------------------|
C||---------------------------------------------------------------|
G||-5-----5---5---8h12-8h12-7h10-7h10-----7778881010108887775554*-|
C||---0-0---0---0----------------------888------------------------|
PM|   • •   •   •                                                 |

Verse IV:
   Guitar I
D||-----------------------------------------------------------------------------------|
A||----------------------------------------------------------151515101010-10h11p10-8*-|
F||-----------------------------------------------------------------------------------|
C||-----------------------------------------------------------------------------------|
G||---888101010121212---888101010121212---101010121212131313--------------------------|
C||-0-----------------7-----------------8---------------------------------------------|
 ||
 ||Guitar II
D||-----------------------------------------------------------|
A||-----------------------------------------------------------|
F||-----------------------------------------------------------|
C||----------------------------------------121212777-7h8p7-5*-|
G||---555777888---555777888---777888101010--------------------|
C||-0-----------7-----------8---------------------------------|

Breakdown:
   Guitars I, II
D||----------------------------------|
A||----------------------------------|
F||----------------------------------|
C||----------------------------------|
G||-0000--0000-0000--0000--000-0-19\-|
C||-0000--0000-0000--0000--000-0-20\-|
PM| ••••  •••• ••••  ••••  ••• •     |

   Guitars I, II
D||-------------------------------------------------------------------------|
A||-------------------------------------------------------------------------|
F||-------------------------------------------------------------------------|
C||-------------------------------------------------------------------------|
G||-0000--0000-0000-0-0000--0000-0000-0-0000--0000-0000-0-0000--0000-0000-0-|
C||-0000--0000-0000-0-0000--0000-0000-0-0000--0000-0000-0-0000--0000-0000-0-|
PM| ••••  •••• •••• • ••••  •••• •••• • ••••  •••• •••• • ••••  •••• •••• • |

   Guitars I, II
D||-------------------------------------------------------------------------------------------------------|
A||-------------------------------------------------------------------------------------------------------|
F||-------------------------------------------------------------------------------------------------------|
C||-------------------------------------------------------------------------------------------------------|
G||-0000--0000-0000-0-0000--0000-0000-0-0000--0000-0000-0-0000--0000-000-0-0------------------------------|
C||-0000--0000-0000-0-0000--0000-0000-0-0000--0000-0000-0-0000--0000-000-0-0--------------------------11\-|
PM| ••••  •••• •••• • ••••  •••• •••• • ••••  •••• •••• • ••••  •••• ••• • •                              |

   Guitars I, II
D||----------------------------------------------------------------------------|
A||----------------------------------------------------------------------------|
F||----------------------------------------------------------------------------|
C||----------------------------------------------------------------------------|
G||-0-0-0-0-0----0-0-0-0-0--0-0-0-0-0--0--0-0-0-0-0----0-0-0-0-0--0-0-0-0-0--0-|
C||-0-0-0-0-0----0-0-0-0-0--0-0-0-0-0--0--0-0-0-0-0----0-0-0-0-0--0-0-0-0-0--0-|
PM| • • • • •    • • • • •  • • • • •  •  • • • • •    • • • • •  • • • • •  • |

   Guitars I, II
D||-----------------------------------------------------------------------------|
A||-----------------------------------------------------------------------------|
F||-----------------------------------------------------------------------------|
C||-----------------------------------------------------------------------------|
G||-0-0-0-0-0----0-0-0-0-0--0-0-0-0-0--0--0-0-0-0-0----0-0-0-0-0--0-0-0-0-0--7\-|
C||-0-0-0-0-0----0-0-0-0-0--0-0-0-0-0--0--0-0-0-0-0----0-0-0-0-0--0-0-0-0-0--8\-|
PM| • • • • •    • • • • •  • • • • •  •  • • • • •    • • • • •  • • • • •     |

   Guitars I, II
D||----------------------------------------------------------------------------|
A||----------------------------------------------------------------------------|
F||----------------------------------------------------------------------------|
C||----------------------------------------------------------------------------|
G||-1-1-1-1-1----1-1-1-1-1--1-1-1-1-1--1--1-1-1-1-1----1-1-1-1-1--1-1-1-1-1--1-|
C||-1-1-1-1-1----1-1-1-1-1--1-1-1-1-1--1--1-1-1-1-1----1-1-1-1-1--1-1-1-1-1--1-|
PM| • • • • •    • • • • •  • • • • •  •  • • • • •    • • • • •  • • • • •  • |

   Guitar II
D||---------------------------|
A||---------------------------|
F||---------------------------|
C||-5-8-7---7-5-----7-5-------|
G||-------8-----8-7-----8-7-5-|
C||---------------------------|

Verse V:
   Guitar I
D||----------------------------------------------------------------|
A||----------------------------------------------------------------|
F||----------------------------------------------7h10p7h10-6h9p6h9-|
C||----------------------------------------------------------------|
G||-------0-------0---0-------5-7--------0---0---------------------|
C||-0-0-0-0---0-0-0-0-0-0-5-7------0-0-0-0-0-0-0-------------------|
PM| • • •     • •   •   •          • • •   •   •                   |x4
 ||
 ||Guitar II
D||--------------------------------------------------------------|
A||--------------------------------------------------------------|
F||--------------------------------------------------------------|
C||--------------------------------------------------------------|
G||-------0-------0---0-------5-7--------0---0---5h8p5h8-4h7p4h7-|
C||-0-0-0-0---0-0-0-0-0-0-5-7------0-0-0-0-0-0-0-----------------|
PM| • • •     • •   •   •          • • •   •   •                 |x4

Verse VI:
   Guitar I
D||----------------------------------------------------------|
A||----------------------------------------------------------|
F||----------------------------------------7h10p7h10-6h9p6h9-|
C||----------------------------------------------------------|
G||---555444555777555777888777888101010888-------------------|
C||-0--------------------------------------------------------|
 ||
 ||Guitar II
D||--------------------------------------------------------|
A||--------------------------------------------------------|
F||--------------------------------------------------------|
C||--------------------------------------------------------|
G||---555444555777555777888777888101010888-5h8p5h8-4h7p4h7-|
C||-0------------------------------------------------------|

   Guitar I
D||----------------------------------------------------|
A||----------------------------------------------------|
F||----------------------------------7h10p7h10-6h9p6h9-|
C||----------------------------------------------------|
G||---5554445557775557778887775554*--------------------|
C||-0--------------------------------------------------|
 ||
 ||Guitar II
D||--------------------------------------------------|
A||--------------------------------------------------|
F||--------------------------------------------------|
C||--------------------------------------------------|
G||---5554445557775557778887775554*--5h8p5h8-4h7p4h7-|
C||-0------------------------------------------------|

Verse VII:
   Guitars I, II
D||------------------------------------------------------------------|
A||------------------------------------------------------------------|
F||------------------------------------------------------------------|
C||------------------------------------------------------------------|
G||-5-----5---5---8---7---10---8p7------5---5---5h7------4---4---4h5-|
C||---0-0---0---0---0---0----0------8-8---8---8------7-7---7---7-----|
PM|   • •   •   •   •   •    •      • •   •   •      • •   •   •     |

   Guitars I, II
D||---------------------------------------------------------------|
A||---------------------------------------------------------------|
F||---------------------------------------------------------------|
C||---------------------------------------------------------------|
G||-5-----5---5---8h12-8h12-7h10-7h10-----7778881010108887775554*-|
C||---0-0---0---0----------------------888------------------------|
PM|   • •   •   •                                                 |

   Guitar I
D||-----------------------------------------------------------------------|
A||-----------------------------------------------------------------------|
F||-----------------------------------------------------------------------|
C||-----------------------------------------------------------------------|
G||-8-----8---8---12---10---13---12p10------8---8---8h10------7---7---7h8-|
C||---0-0---0---0----0----0----0--------8-8---8---8-------7-7---7---7-----|
PM|   • •   •   •    •    •    •        • •   •   •       • •   •   •     |
 ||
 ||Guitar II
D||------------------------------------------------------------------|
A||------------------------------------------------------------------|
F||------------------------------------------------------------------|
C||------------------------------------------------------------------|
G||-5-----5---5---8---7---10---8p7------5---5---5h7------4---4---4h5-|
C||---0-0---0---0---0---0----0------8-8---8---8------7-7---7---7-----|
PM|   • •   •   •   •   •    •      • •   •   •      • •   •   •     |

   Guitar I
D||------------------------------------------------------------------------------|
A||------------------------------------------------------------------------------|
F||------------------------------------------------------------------------------|
C||------------------------------------------------------------------------------|
G||-8-----8---8---13h15-13h15-10h13-10h13----101010121212131313121212-10--8v--7v-|
C||---0-0---0---0-------------------------888------------------------------------|
PM|   • •   •   •                                                                |
 ||
 ||Guitar II
D||-----------------------------------------------------------------|
A||-----------------------------------------------------------------|
F||-----------------------------------------------------------------|
C||-----------------------------------------------------------------|
G||-5-----5---5---8h12-8h12-7h10-7h10-----777888101010888-7--5v--4v-|
C||---0-0---0---0----------------------888--------------------------|
PM|   • •   •   •                                                   |

Outro:
   Guitar I
D||---------------------------------------------------------------------------------------------|
A||---------------------------------------------------------------------------------------------|
F||---------------------------------------------------------------------------------------------|
C||---------------------------------------------------------------------------------------------|
G||-8v------8v-------8/12--10--12--12/13--12--10h12p0---------10h12---8h10---------8h10---7h8p7-|
C||-----000-----000------------------------------------8--888---------------7--777--------------|
PM|     •••     •••                                       •••                  •••              |
 ||
 ||Guitar II
D||-------------------------------------------------------------------------------------|
A||-------------------------------------------------------------------------------------|
F||-------------------------------------------------------------------------------------|
C||-------------------------------------------------------------------------------------|
G||-5v------5v-------5/8--7--8--8/10--8--7h8p0---------7h8---5h7p5----------5h7---4h5p4-|
C||-----000-----000-----------------------------8--888--------------7--777--------------|
PM|     •••     •••                                •••                 •••              |

   Guitar I
D||-------------------------------------------------------------------------------------------|
A||-------------------------------------------------------------------------------------------|
F||-------------------------------------------------------------------------------------------|
C||-------------------------------------------------------------------------------------------|
G||-8v------8v------12h13---12h15---12h13p12p10----13/15--13--12h13p12----12/13--12--10h12p10-|
C||-----000-----000------------------------------8----------------------7---------------------|
PM|     •••     •••                                                                           |
 ||
 ||Guitar II
D||--------------------------------------------------------------------------------|
A||--------------------------------------------------------------------------------|
F||--------------------------------------------------------------------------------|
C||--------------------------------------------------------------------------------|
G||-5v------5v------8h10---10h12---8h10p8p7----10/12--10--8h10p8----8/10--8--7h8p7-|
C||-----000-----000--------------------------8--------------------7----------------|
PM|     •••     •••                                                                |

   Guitar I
D||---------------------------------------------------------------------------------------------|
A||---------------------------------------------------------------------------------------------|
F||---------------------------------------------------------------------------------------------|
C||---------------------------------------------------------------------------------------------|
G||-8v------8v-------8/12--10--12--12/13--12--10h12p0---------10h12---8h10---------8h10---7h8p7-|
C||-----000-----000------------------------------------8--888---------------7--777--------------|
PM|     •••     •••                                       •••                  •••              |
 ||
 ||Guitar II
D||-------------------------------------------------------------------------------------|
A||-------------------------------------------------------------------------------------|
F||-------------------------------------------------------------------------------------|
C||-------------------------------------------------------------------------------------|
G||-5v------5v-------5/8--7--8--8/10--8--7h8p0---------7h8---5h7p5----------5h7---4h5p4-|
C||-----000-----000-----------------------------8--888--------------7--777--------------|
PM|     •••     •••                                •••                 •••              |

   Guitar I
D||-------------------------------------------------------------------------------------------|
A||-------------------------------------------------------------------------------------------|
F||-------------------------------------------------------------------------------------------|
C||-------------------------------------------------------------------------------------------|
G||-8v------8v------12h13---12h15---12h13p12p10----13/15--13--12h13p12----12/13--12--10h12p10-|
C||-----000-----000------------------------------8----------------------7---------------------|
PM|     •••     •••                                                                           |
 ||
 ||Guitar II
D||--------------------------------------------------------------------------------|
A||--------------------------------------------------------------------------------|
F||--------------------------------------------------------------------------------|
C||--------------------------------------------------------------------------------|
G||-5v------5v------8h10---10h12---8h10p8p7----10/12--10--8h10p8----8/10--8--7h8p7-|
C||-----000-----000--------------------------8--------------------7----------------|
PM|     •••     •••                                                                |

   Guitars I, II
D||------------------------------------------------|
A||------------------------------------------------|
F||------------------------------------------------|
C||-0----(0)----(0)----(0)----(0)----(0)----(0)----|
G||-0----(0)----(0)----(0)----(0)----(0)----(0)----|
C||-0----(0)----(0)----(0)----(0)----(0)----(0)----|
Suggest correction
Creating personal tab
Creating personal tab
You can edit any tab online and save it as your Personal.

You can edit, replace or remove any tab part or add personal notes – all changes will be seen only by you.

Personal tabs can be accessed anytime from any device, even offline.
Learn more »
Give kudos to tab author, rate the tab!
1 2 3 4 5
comments
print report bad tab
guest
You may want to rate the tab now too:
select rating
Wanna post a correction for this tab? Suggest correction