Oops, an error
Loading. Please wait.
We have an official Intro tab made by UG professional guitarists. Check out the tab »
×
10,380 views 3 this week
2 commentsread comments
1 2 3 4 5
x 10
add to favorites
×
Save as Personal and add changes to this tab that will be seen only by you. Learn more ›
×
You can save this tab as Personal to edit and correct it or add notes. All changes will be seen only by you. Learn more »
launch autoscroll
font size
0
reset
how to read this tab
guitar tuner
edit
Autoscroll
slow
fast
+/-
esc
set tempo
stop
Author
As Blood Runs Black - Intro
Tabbed by: rcw110131


Guitar I (CGCFAD) - Left Guitar
Guitar II (CGCFAD) - Right Guitar

* = artificial harmonic
~ = vibrato


Fairly easy song to play as long as you have you tremolo picking up to par.
Take note of my little notes lol.  Enjoy!  Comment!  Rate!


UPDATED: 6/24/07 - I'm in the middle of tabbing In Dying Days and realized
that these guys just don't use your standard palm-muted triplets when
chugging (-000-), so I went back and re-checked the song and sure enough
the first bar and then like the last two thirds of the song had to be fixed
to reflect that.  Might not sound right at first, but I can guarantee you
that the last two thirds of the song is composed of palm-muted quadruplets, not 
 So yeah you might have to work on your palm muting skills lol.

Oh and I'm making a Guitar Pro version of this as well, for those of you who
like to hear it played  :)

============================================================================

  Guitars I + II:
D|----------------|
A|----------------|
F|----------------|
C|----------------|
G|00000---0000----| <--yeah, that's a quintuplet and then a quadruplet lol
C|00000---0000----|
PM.....   ....

D|----------------|----------------|----------------|----------------|
A|----------------|----------------|----------------|----------------|
F|----------------|----------------|----------------|----------------|
C|----------------|----------------|----------------|----------------|
G|------------7777|----------------|5555555544444444|7777777788888888|
C|000000000000----|8888555577778888|----------------|----------------|
PM

D|----------------|----------------|-----------------|----------------|
A|----------------|----------------|-----------------|----------------|
F|----------------|----------------|-----------------|----------------|
C|----------------|----------------|-----------------|----------------|
G|------------7777|----------------|777777778888884*~|----------------|
C|888888888888----|8888555577778888|-----------------|----------------|
PM

D|----------------|----------------|----------------|----------------|
A|----------------|----------------|----------------|----------------|
F|----------------|----------------|----------------|----------------|
C|----------------|----------------|----------------|----------------|
G|------------7777|----------------|5555555544444444|7777777788888888|
C|000000000000----|8888555577778888|----------------|----------------|
PM

D|----------------|----------------|----------------|----------------|
A|----------------|----------------|----------------|----------------|
F|----------------|----------------|----------------|----------------|
C|----------------|----------------|----------------|----------------|
G|------------7777|----------------|7777777788888888|4~--------------|
C|888888888888----|8888555577778888|----------------|----------------|
PM


                                 THEN


  Guitar I:
D|----------------|----------------|----------------|----------------|
A|----------------|----------------|----------------|----------------|
F|----------------|----------------|----------------|----------------|
C|----------------|----------------|----------------|----------------|
G|0-----------0000|----0000--------|----0000----0000|----0000----0000|
C|0-----------0000|----0000--------|----0000----0000|----0000----0000|
PM.           ....     ....             ....    ....     ....    ....

D|----------------|----------------|----------------|----------------|
A|----------------|----------------|----------------|----------------|
F|----------------|----------------|----------------|----------------|
C|----------------|----------------|----------------|----------------|
G|------------0000|----0000---0----|5-------4-------|7-------8-------|
C|------------0000|----0000---0----|3-------2-------|5-------7-------|
PM            ....     ....   .


                                                     (note this 1 bar
  Guitar II:                                           is different)
D|----------------|----------------|----------------|----------------|
A|----------------|----------------|----------------|----------------|
F|----------------|----------------|----------------|----------------|
C|----------------|----------------|----------------|----------------|
G|------------7777|----------------|5555555544444444|5555555577777777|
C|000000000000----|8888555577778888|----------------|----------------|
PM

D|----------------|----------------|----------------|----------------|
A|----------------|----------------|----------------|----------------|
F|----------------|----------------|----------------|----------------|
C|----------------|----------------|----------------|----------------|
G|------------7777|----------------|7777777788888888|4*~-------------|
C|888888888888----|8888555577778888|----------------|----------------|
PM


                                 THEN


  Guitars I + II: (notice how each set of 8 bars is different)
D|----------------|----------------|----------------|----------------|
A|----------------|----------------|----------------|----------------|
F|----------------|----------------|----------------|----------------|
C|----------------|----------------|----------------|----------------|
G|0-----------0000|----0000--------|----0000----0000|----0000----0000|
C|0-----------0000|----0000--------|----0000----0000|----0000----0000|
PM.           ....     ....             ....    ....     ....    ....

D|----------------|----------------|----------------|----------------|
A|----------------|----------------|----------------|----------------|
F|----------------|----------------|----------------|----------------|
C|----------------|----------------|----------------|----------------|
G|------------0000|----0000---0----|5-------4-------|7-------8-------|
C|------------0000|----0000---0----|3-------2-------|5-------7-------|
PM            ....     ....   .

D|----------------|----------------|----------------|----------------|
A|----------------|----------------|----------------|----------------|
F|----------------|----------------|----------------|----------------|
C|----------------|----------------|----------------|----------------|
G|0-----------0000|----0000----0000|----0000--------|----0000----0000|
C|0-----------0000|----0000----0000|----0000--------|----0000----0000|
PM.           ....     ....    ....     ....             ....    ....

D|----------------|----------------|----------------|----------------|
A|----------------|----------------|----------------|----------------|
F|----------------|----------------|----------------|----------------|
C|----------------|----------------|----------------|----------------|
G|------------0000|----0000---0----|8-------7-------|5-------4-------|
C|------------0000|----0000---0----|7-------5-------|3-------2-------|
PM            ....     ....   .

D|----------------|----------------|----------------|----------------|
A|----------------|----------------|----------------|----------------|
F|----------------|----------------|----------------|----------------|
C|----------------|----------------|----------------|----------------|
G|0-----------0000|----0000--------|----0000----0000|----0000----0000|
C|0-----------0000|----0000--------|----0000----0000|----0000----0000|
PM.           ....     ....             ....    ....     ....    ....

D|----------------|----------------|----------------|----------------|
A|----------------|----------------|----------------|----------------|
F|----------------|----------------|----------------|----------------|
C|----------------|----------------|----------------|----------------|
G|------------0000|----0000---0----|5-------7-------|4-------8-------|
C|------------0000|----0000---0----|3-------5-------|2-------7-------|
PM            ....     ....   .

D|----------------|----------------|----------------|----------------|
A|----------------|----------------|----------------|----------------|
F|----------------|----------------|----------------|----------------|
C|----------------|----------------|----------------|----------------|
G|0-----------0000|----0000----0000|----0000--------|----0000----0000|
C|0-----------0000|----0000----0000|----0000--------|----0000----0000|
PM.           ....     ....    ....     ....             ....    ....

D|----------------|----------------|----------------|----------------|
A|----------------|----------------|----------------|----------------|
F|----------------|----------------|----------------|----------------|
C|----------------|----------------|----------------|----------------|
G|------------0000|----0000---0----|5-------4-------|7-------5-------|
C|------------0000|----0000---0----|3-------2-------|5-------3-------|
PM            ....     ....   .


D|----------------|----------------|
A|----------------|----------------|
F|----------------|----------------|
C|----------------|----------------|
G|8-------7-------|3---2---0-------|
C|7-------5-------|3---2---0-------|
PM                 .   .   .


That's it!  Please rate/comment  :)
Suggest correction
Creating personal tab
Creating personal tab
You can edit any tab online and save it as your Personal.

You can edit, replace or remove any tab part or add personal notes – all changes will be seen only by you.

Personal tabs can be accessed anytime from any device, even offline.
Learn more »
comments
print report bad tab
2 comments total.
0 reply
lpguitarplayer3 307 Dec 03, 2007 09:19 AM

Great tab...looks/sounds perfect to me...could you maybe tab out hester prynne?? :)

0 reply
DimeZakk9304 40 May 13, 2009 03:48 PM

Nice job

guest
You may want to rate the tab now too:
select rating
Wanna post a correction for this tab? Suggest correction