Oops, an error
Loading. Please wait.

My Fears Have Become Phobias bass

version 1
version 1
7,407 views 1 this week
1 commentread comment
1 2 3 4 5
1 last vote to show rating
add to favorites
×
Save as Personal and add changes to this tab that will be seen only by you. Learn more ›
×
You can save this tab as Personal to edit and correct it or add notes. All changes will be seen only by you. Learn more »
launch autoscroll
font size
0
reset
guitar tuner
edit
Autoscroll
slow
fast
+/-
esc
set tempo
stop
This is almost 100% except for the guitar solo and a little part in the outro.

Tuning:Drop c

Intro
F--------------------------------------------------12t6h9p6h9--|
C---------------------------------------12t5h8p5h8-------------|
G----------------------------12t4h7p4h7------------------------|
C-0---12\-0000----12t5h8p5h8-----------------------------------|

Verse 1
F-------------------------------------------------------------------|
C-------------------------------------------------------------------|
G-----5h8p5h8-4h7p4h7-----5h8p5h8-4h7p4h7-----------5h8p5h8-4h7p4h7-|
C-000-----------------000-----------------000000000-----------------|

F----------------------------------12t6h9p6h9--|
C-----------------------12t5h8p5h8-------------|
G------------12t4h7p4h7------------------------|
C-12t5h8p5h8-----------------------------------|

Chorus
F------------------------------------------------|
C----------------------------------------3p0-----|
G--------------------------------5p4-----------1-|
C-/12\-0000-0000-0-000000000-000-----000-----0---|


F--------------------------------------------------|
C------------------------------------------3p0-----|
G----------------------------------5p4-----------1-|
C--0000----0000-0-000000000-000--------000-----0---|

Verse 2
F-------------------------------------------|
C----------------------------7--------------|
G-----8----7----10----7-8-10---10-8-7-8-7-5-|
C-000---00---00----00-----------------------|

F----------------------------------------------|
C-----------------------------8----------------|
G-----8----7----10----8-10-12---12-10-8-10-8-7-|
C-888---88---88----88--------------------------|

Guitar Solo
F------------------------------------------------------------------|
C------------------------------------------------7-----------7-----|
G-55555555555555555555---------------------5-8-7---8-7-5-8-7---8-7-|
C----------------------7777/5555/3333/0000-------------------------|

F--------------------------------------------------------------|
C--------------------------------------------------------------|
G-5555-3333-1111---------------------55555555555555555555-7777-|
C----------------7777-5555-3333-0000---------------------------|

F--------------------------------------------|
C--------------------------------------------|
G-11111111111111111111-3333333333-5555555555-|
C--------------------------------------------|

Bridge
F---------------------------------------------------------------------|
C---------------------------------------------------------------------|
G-----5/87----7h10-----5/87----7h10-----8p7----10/12-----8p7----10/12-|
C-000------00------000------00------888-----88-------888-----88-------|


F----------------------------------------------------------------------------|
C----------------------------------------------------------------------------|
G----------------------------------------------------------------------------|
C-0-1-0-----/12\--0-1-0-000-0-00-00-000000000-0-1-0-000-0-00-00-0000000-/12\-|

F----------------------------------------------------------------------------|
C----------------------------------------------------------------------------|
G---------3--1---------------------------------------------------------------|
C-0-3-0-5------0-1-0-000-0-00-00-0-1-0-/12\-00-00-00-0-1-0-000-0-00-00-0-1-0-|

F---------------------|
C---------------------|
G---------------------|
C-/12\-00-00-10-00-0--|

Verse 3
F-----------------------------------------------------|
C-----------------------------------------------------|
G------------5h8p5h8-4h7p4h7--------------------------|
C--/12\-000------------------000----------------------|

F----------------------------------12t6h9p6h9--|
C-----------------------12t5h8p5h8-------------|
G------------12t4h7p4h7------------------------|
C-12t5h8p5h8-----------------------------------|

F-------------------------------------------------------------------|
C-------------------------------------------------------------------|
G-----5h8p5h8-4h7p4h7-----5h8p5h8-4h7p4h7-----------5h8p5h8-4h7p4h7-|
C-000-----------------000-----------------000000000-----------------|

F----------------------------------12t6h9p6h9--|
C-----------------------12t5h8p5h8-------------|
G------------12t4h7p4h7------------------------|
C-12t5h8p5h8-----------------------------------|

Outro
F---------------------------------------------------------------------------|
C---------------------------------------------------------------------------|
G-----4----4----4h5h7-----5----5----5h7h8-----4----4----4h5h7-----5----5----|
C-000---00---00-------000---00---00-------000---00---00-------000---00---00-|

F-------|
C-------|
G-5h7h8-
C-------

F----------------------------------------------------------|
C----------------------------------------------------------|
G----------------------------------------------------------|
C-0-1-0------0-1-0------/12\-0-1-0------0-1-0------6-5-3-2-|

F---------------------------------------------------|
C---------------------------------------------------|
G---------------------------------------------------|
C-0-1-0-000-0-00-00-00-0-0-1-0-000-0-00-00-00--/12\-|

F---------------------------------------------------|
C---------------------------------------------------|
G---------------------------------------------------|
C-0-1-0-000-0-00-00-00-0-0-1-0-000-0-00-00-00--/12\-|

F---------------------------------------------------|
C---------------------------------------------------|
G---------------------------------------------------|
C-0-1-0-000-0-00-00-00-0-0-1-0-000-0-00-00-00--/12\-|

F---------|
C---------|
G---------|
C-0-1-0---|

Enjoy
Suggest correction
Creating personal tab
Creating personal tab
You can edit any tab online and save it as your Personal.

You can edit, replace or remove any tab part or add personal notes – all changes will be seen only by you.

Personal tabs can be accessed anytime from any device, even offline.
Learn more »
Give kudos to tab author, rate the tab!
1 2 3 4 5
comments
print report bad tab
1 comment total.
0 reply
Marcusaurus 94 Nov 06, 2009 06:23 PM

wow thanks finally a bass tab for this song!!!

guest
You may want to rate the tab now too:
select rating
Wanna post a correction for this tab? Suggest correction