Oops, an error
Loading. Please wait.

My Fears Have Become Phobias tab

version 4
4,449 views 1 this week
10 commentsread comments
1 2 3 4 5
x 6
add to favorites
×
Save as Personal and add changes to this tab that will be seen only by you. Learn more ›
×
You can save this tab as Personal to edit and correct it or add notes. All changes will be seen only by you. Learn more »
launch autoscroll
font size
0
reset
how to read this tab
guitar tuner
edit
Autoscroll
slow
fast
+/-
esc
set tempo
stop
Intro:
   Guitars I, II (From “In Dying Days”)
D||-------------|
A||-------------|
F||-------------|
C||-(0)---------|
G||-(0)----12\--|
C||-(0)----12\--|
        
   Guitar I
D||-------------------------------------------------------------------------------|
A||-------------------------------------------------------------------------------|
F||-------------------------------------------------------------------------------|
C||-------------------------------------------------------------------------------|
G||-----8h12p8h12-7h10p7h10-----8h12p8h12-7h10p7h10-----------8h12p8h12-7h10p7h10-|
C||-000---------------------000---------------------000000000---------------------|
PM|-xxx---------------------xxx---------------------xxxxxxxxx---------------------|
 ||
 ||Guitar II
D||-------------------------------------------------------------------------------|
A||-------------------------------------------------------------------------------|
F||-------------------------------------------------------------------------------|
C||-0----------------------(0)----------------------------------------------------|
G||-0----------------------(0)----------------------------------------------------|
C||-0----------------------(0)----------------------000000000---------------------|
PM|-------------------------------------------------xxxxxxxxx---------------------|

   Guitar I
D||---------------------------------------------|
A||---------------------------------------------|
F||-----------------------------------9h12p9h12-|
C||-------------------------8h11p8h11-----------|
G||---------------7h10p7h10---------------------|
C||-000-8h12p8h12-------------------------------|
PM|-xxx-----------------------------------------|
 ||
 ||Guitar II
D||-------------------------------------|
A||-------------------------------------|
F||-----------------------------6h9p6h9-|
C||---------------------5h8p5h8---------|
G||-------------4h7p4h7-----------------|
C||-000-5h8p5h8-------------------------|
PM|-xxx---------------------------------|   
                             End Intro
Verse I:
   Guitar I
D||-------------------------------------------------------------------------------|
A||-------------------------------------------------------------------------------|
F||-------------------------------------------------------------------------------|
C||-------------------------------------------------------------------------------|
G||-----8h12p8h12-7h10p7h10-----8h12p8h12-7h10p7h10-----------8h12p8h12-7h10p7h10-|
C||-000---------------------000---------------------000000000---------------------|
PM|-xxx---------------------xxx---------------------xxxxxxxxx---------------------| 
 ||
 ||Guitar II
D||-------------------------------------------------------------------|
A||-------------------------------------------------------------------|
F||-------------------------------------------------------------------|
C||-------------------------------------------------------------------|
G||-----5h8p5h8-4h7p4h7-----5h8p5h8-4h7p4h7-----------5h8p5h8-4h7p4h7-|
C||-000-----------------000-----------------000000000-----------------|
PM|-xxx-----------------xxx-----------------xxxxxxxxx-----------------|

   Guitar I
D||---------------------------------------------|
A||---------------------------------------------|
F||-----------------------------------9h12p9h12-|
C||-------------------------8h11p8h11-----------|
G||---------------7h10p7h10---------------------|
C||-000-8h12p8h12-------------------------------|
PM|-xxx-----------------------------------------|
 ||
 ||Guitar II
D||-------------------------------------|
A||-------------------------------------|
F||-----------------------------6h9p6h9-|
C||---------------------5h8p5h8---------|
G||-------------4h7p4h7-----------------|
C||-000-5h8p5h8-------------------------|
PM|-xxx---------------------------------|

   Guitar I
D||-------------------------------------------------------------------------------|
A||-------------------------------------------------------------------------------|
F||-------------------------------------------------------------------------------|
C||-------------------------------------------------------------------------------|
G||-----8h12p8h12-7h10p7h10-----8h12p8h12-7h10p7h10-----------8h12p8h12-7h10p7h10-|
C||-000---------------------000---------------------000000000---------------------|
PM|-xxx---------------------xxx---------------------xxxxxxxxx---------------------| 
 ||
 ||Guitar II
D||-------------------------------------------------------------------|
A||-------------------------------------------------------------------|
F||-------------------------------------------------------------------|
C||-------------------------------------------------------------------|
G||-----5h8p5h8-4h7p4h7-----5h8p5h8-4h7p4h7-----------5h8p5h8-4h7p4h7-|
C||-000-----------------000-----------------000000000-----------------|
PM|-xxx-----------------xxx-----------------xxxxxxxxx-----------------|

   Guitar I
D||---------------------------------------------|
A||---------------------------------------------|
F||-----------------------------------9h12p9h12-|
C||-------------------------8h11p8h11-----------|
G||---------------7h10p7h10---------------------|
C||-000-8h12p8h12-------------------------------|
PM|-xxx-----------------------------------------|
 ||
 ||Guitar II
D||-------------------------------------|
A||-------------------------------------|
F||-----------------------------6h9p6h9-|
C||---------------------5h8p5h8---------|
G||-------------4h7p4h7-----------------|
C||-000-5h8p5h8-------------------------|
PM|-xxx---------------------------------|

   Guitar I
D||-------------------------------------------------------------------------------|
A||-------------------------------------------------------------------------------|
F||-------------------------------------------------------------------------------|
C||-------------------------------------------------------------------------------|
G||-----8h12p8h12-7h10p7h10-----8h12p8h12-7h10p7h10-----------8h12p8h12-7h10p7h10-|
C||-000---------------------000---------------------000000000---------------------|
PM|-xxx---------------------xxx---------------------xxxxxxxxx---------------------| 
 ||
 ||Guitar II
D||-------------------------------------------------------------------|
A||-------------------------------------------------------------------|
F||-------------------------------------------------------------------|
C||-------------------------------------------------------------------|
G||-----5h8p5h8-4h7p4h7-----5h8p5h8-4h7p4h7-----------5h8p5h8-4h7p4h7-|
C||-000-----------------000-----------------000000000-----------------|
PM|-xxx-----------------xxx-----------------xxxxxxxxx-----------------|

   Guitar I
D||---------------------------------------------|
A||---------------------------------------------|
F||-----------------------------------9h12p9h12-|
C||-------------------------8h11p8h11-----------|
G||---------------7h10p7h10---------------------|
C||-000-8h12p8h12-------------------------------|
PM|-xxx-----------------------------------------|
 ||
 ||Guitar II
D||-------------------------------------|
A||-------------------------------------|
F||-----------------------------6h9p6h9-|
C||---------------------5h8p5h8---------|
G||-------------4h7p4h7-----------------|
C||-000-5h8p5h8-------------------------|
PM|-xxx---------------------------------|

   Guitar I
D||-------------------------------------------------------------------------------|
A||-------------------------------------------------------------------------------|
F||-------------------------------------------------------------------------------|
C||-------------------------------------------------------------------------------|
G||-----8h12p8h12-7h10p7h10-----8h12p8h12-7h10p7h10-----------8h12p8h12-7h10p7h10-|
C||-000---------------------000---------------------000000000---------------------|
PM|-xxx---------------------xxx---------------------xxxxxxxxx---------------------| 
 ||
 ||Guitar II
D||-------------------------------------------------------------------|
A||-------------------------------------------------------------------|
F||-------------------------------------------------------------------|
C||-------------------------------------------------------------------|
G||-----5h8p5h8-4h7p4h7-----5h8p5h8-4h7p4h7-----------5h8p5h8-4h7p4h7-|
C||-000-----------------000-----------------000000000-----------------|
PM|-xxx-----------------xxx-----------------xxxxxxxxx-----------------|

   Guitar I
D||----------------------------------------------------------|
A||----------------------------------------------------------|
F||-----------------------------------9h12p9h12--------------|
C||-------------------------8h11p8h11------------------------|
G||---------------7h10p7h10---------------------0--------19\-|
C||-000-8h12p8h12-------------------------------0--------20\-|
PM|-xxx-----------------------------------------x------------| 
||
 ||Guitar II
D||--------------------------------------------------|
A||--------------------------------------------------|
F||-----------------------------6h9p6h9--------------|
C||---------------------5h8p5h8----------------------|
G||-------------4h7p4h7-----------------0--------19\-|
C||-000-5h8p5h8-------------------------0--------20\-|
PM|-xxx---------------------------------x------------|
                                           End Verse I
Breakdown I:
   Guitars I, II
D||--------------------------------------------------------------------------------|
A||--------------------------------------------------------------------------------|
F||--------------------------------------------------------------------------------|
C||--------------------------------------------------------------------------------|
G||-0-0-0-0---------0-0-0-0---0---0-0-0-0-0-0-0-0-0-0-------0-0-0-5p4-----7p0---1~-|
C||-0-0-0-0---------0-0-0-0---0---0-0-0-0-0-0-0-0-0-0-------0-0-0-----000-----0----|x2
PM|-x-x-x-x---------x-x-x-x---x---x-x-x-x-x-x-x-x-x-x-------x-x-x-----xxx-----x----|

   Guitar I
D||---------------------------------------------------------------------------------|
A||---------------------------------------------------------------------------------|
F||---------------------------------------------------------------------------------|
C||---------------------------------------------------------------------------------|
G||-0-0-0-0---------0-0-0-0---0---0-0-0-0-0-0-0-0-0-0-0-0-0-0-0-0-8p7-----10p0---4~-|
C||-0-0-0-0---------0-0-0-0---0---0-0-0-0-0-0-0-0-0-0-0-0-0-0-0-0-----000------0----|
PM|-x-x-x-x---------x-x-x-x---x---x-x-x-x-x-x-x-x-x-x-x-x-x-x-x-x-----xxx------x----| 
 ||
 ||Guitar II
D||--------------------------------------------------------------------------------|
A||--------------------------------------------------------------------------------|
F||--------------------------------------------------------------------------------|
C||--------------------------------------------------------------------------------|
G||-0-0-0-0---------0-0-0-0---0---0-0-0-0-0-0-0-0-0-0-0-0-0-0-0-0-5p4-----7p0---1~-|
C||-0-0-0-0---------0-0-0-0---0---0-0-0-0-0-0-0-0-0-0-0-0-0-0-0-0-----000-----0----|
PM|-x-x-x-x---------x-x-x-x---x---x-x-x-x-x-x-x-x-x-x-x-x-x-x-x-x-----xxx-----x----|

   Guitar I
D||---------------------------------------------------------------------------------|
A||---------------------------------------------------------------------------------|
F||---------------------------------------------------------------------------------|
C||---------------------------------------------------------------------------------|
G||-0-0-0-0---------0-0-0-0---0---0-0-0-0-0-0-0-0-0-0-------0-0-0-8p7-----10p0---4~-|
C||-0-0-0-0---------0-0-0-0---0---0-0-0-0-0-0-0-0-0-0-------0-0-0-----000-----0-----|
PM|-x-x-x-x---------x-x-x-x---x---x-x-x-x-x-x-x-x-x-x-------x-x-x-----xxx-----x-----| 
 ||
 ||Guitar II
D||--------------------------------------------------------------------------------|
A||--------------------------------------------------------------------------------|
F||--------------------------------------------------------------------------------|
C||--------------------------------------------------------------------------------|
G||-0-0-0-0---------0-0-0-0---0---0-0-0-0-0-0-0-0-0-0-------0-0-0-5p4-----7p0---1~-|
C||-0-0-0-0---------0-0-0-0---0---0-0-0-0-0-0-0-0-0-0-------0-0-0-----000-----0----|
PM|-x-x-x-x---------x-x-x-x---x---x-x-x-x-x-x-x-x-x-x-------x-x-x-----xxx-----x----|
                                                                     End Breakdown I
Verse II:  
   Guitars I, II
D||-------------------------------------------------------------------------------------|
A||-------------------------------------------------------------------------------------|
F||-------------------------------------------------------------------------------------|
C||-------------------------7-----------------------------------------8-----------------|
G||-----8---7---10---7-8-10---10-8-7-8-7-5~------8---7---10---8-10-12---12-10-8-10-8-7~-|
C||-000---0---0----0-------------------------888---8---8----8---------------------------|x2
PM|-xxx---x---x----x-------------------------xxx---x---x----x---------------------------|

   Guitar I
D||-------------------------------------------------------------------------------------|
A||-------------------------------------------------------------------------------------|
F||--------------------------5----------------------------------------------------------|
C||--------------------5-7-8---8-7-5-7-5------------------------------8-----------------|
G||-----12---10---13---------------------8~------8---7---10---8-10-12---12-10-8-10-8-7~-|
C||-000----0----0----0-----------------------888---8---8----8---------------------------|x2
PM|-xxx----x----x----x-----------------------xxx---x---x----x---------------------------| 
 ||
 ||Guitar II
D||-------------------------------------------------------------------------------------|
A||-------------------------------------------------------------------------------------|
F||-------------------------------------------------------------------------------------|
C||-------------------------7-----------------------------------------8-----------------|
G||-----8---7---10---7-8-10---10-8-7-8-7-5~------8---7---10---8-10-12---12-10-8-10-8-7~-|
C||-000---0---0----0-------------------------888---8---8----8---------------------------|x2
PM|-xxx---x---x----x-------------------------xxx---x---x----x---------------------------|
                                                                             End Verse II
Solo:
   Guitar I
D||-------------------------------------------------|
A||-------------------------------------------------|
F||-------------------------------------------------|
C||-----12121214141415151517171719191920-19-17------|
G||--------------------------------------------20v--|
C||-------------------------------------------------|
 ||
 ||Guitar II
D||-------------------------------------------------|
A||-------------------------------------------------|
F||-------------------------------------------------|
C||-------------------------------------------------|
G||-------------------------------------------------|
C||-000---------------------------------------------|
PM|-xxx---------------------------------------------|

   Guitar I
D||-----------------------------------------------------------|
A||-----------------------------------------------------------|
F||-17h20p17-------15h18p15-------14h17p14-------12h15p12-----|
C||---------191919---------171717---------151515---------14br-|
G||-----------------------------------------------------------|
C||-----------------------------------------------------------|

   Guitar II
D||---------------------------------|
A||--------10*-------------10*------|
F||-7/10-9-----10-9—7/10-9-----10-9-|
C||---------------------------------|
G||---------------------------------|
C||---------------------------------|

   Guitar I
D||---------------------------------------|
A||-?-----------?-----------?-------------|
F||---?-------?---?-------?---?-----------|
C||-----?---?-------?---?-------?-14------|
G||-------?-----------?-----------16-brbr-|
C||---------------------------------------|

   Guitar I
D||----------------------------------------------------------|
A||-------------15h18p15---------------------15h18p15--------|
F||-------14-15----------15-14v--------14-15----------15-14v-|
C||----15---------------------------15-----------------------|
G||-17---------------------------17--------------------------|
C||----------------------------------------------------------|

   Guitar I
D||----------------------------------------------------------------|
A||----------------------------------------------------------------|
F||-------14-15-14h15p14---------------14-15-14h15p14--------------|
C||----15----------------15-14v-----15----------------15-14v-------|
G||-17---------------------------17--------------------------------|
C||----------------------------------------------------------------|
 ||
 ||Guitar II
D||----------------------------------------------------------------|
A||----------------------------------------------------------------|
F||----------------------------------------------------------------|
C||----------------------------------------------------------------|
G||------------------------------------------------------------19\-|
C||------------------------------------------------------------20\-|
                                                            End Solo
Verse III:
   Guitars I, II
D||-----------------------------------------------------------------------------------|
A||-----------------------------------------------------------------------------------|
F||-----------------------------------------------------------------------------------|
C||-----------------------------------------------------------------------------------|
G||-----5/8-7------7h10------5/8-7------7h10------8p7------10/12------8p7------10/12--|
C||-000--------000-------000--------000-------888------888--------888------888--------|x2
PM|-xxx--------xxx-------xxx--------xxx-------xxx------xxx--------xxx------xxx--------|

   Guitar I
D||--------------------------------------------------------------------------------------------|
A||--------------------------------------------------------------------------------------------|
F||--------------------------------------------------------------------------------------------|
C||--------------------------------------------------------------------------------------------|
G||-----8/12-10------10h13------8/12-10------10h13------12p10------13/15------12p10------13/15-|
C||-000----------000--------000----------000--------888--------888--------888--------888-------|x2
PM|-xxx----------xxx--------xxx----------xxx--------xxx--------xxx--------xxx--------xxx-------| 
 ||
 ||Guitar II
D||-----------------------------------------------------------------------------------|
A||-----------------------------------------------------------------------------------|
F||-----------------------------------------------------------------------------------|
C||-----------------------------------------------------------------------------------|
G||-----5/8-7------7h10------5/8-7------7h10------8p7------10/12------8p7------10/12--|
C||-000--------000-------000--------000-------888------888--------888------888--------|x2
PM|-xxx--------xxx-------xxx--------xxx-------xxx------xxx--------xxx------xxx--------|
                                                                          End Verse III
   Guitars I, II
D||------------------|
A||------------------|
F||------------------|
C||------------------|
G||-0-1-0--------19\-|
C||-0-1-0--------20\-|
PM|-x-x-x------------|

Breakdown II:
   Guitars I, II
D||------------------------------------------------------------|
A||------------------------------------------------------------|
F||------------------------------------------------------------|
C||------------------------------------------------------------|
G||-0-1-0--000--0--00-00-000000-0-1-0--000000-0--00-00-000-19\-|
C||-0-1-0--000--0--00-00-000000-0-1-0--000000-0--00-00-000-20\-|
PM|-x-x-x--xxx--x--xx-xx-xxxxxx-x-x-x--xxxxxx-x--xx-xx-xxx--=--|

   Guitars I, II
D||-------------------------------------------------------------------|
A||-------------------------------------------------------------------|
F||-------------------------------------------------------------------|
C||-------------------------------------------------------------------|
G||-0-1-0--000--0--00-00-000000-0-1-0--000000-0--00-00-2-0-1-0-2~-2~--|
C||-0-1-0--000--0--00-00-000000-0-1-0--000000-0--00-00-2-0-1-0-3~-2~--|
PM|-x-x-x--xxx--x--xx-xx-xxxxxx-x-x-x--xxxxxx-x--xx-xx-x-x-x-x--------|

   Guitars I, II
D||------------------------------------------------------------|
A||------------------------------------------------------------|
F||------------------------------------------------------------|
C||------------------------------------------------------------|
G||-0-1-0---------000000-0--00-00-0-1-0---12\--000000-0--00-00-|
C||-0-1-0---------000000-0--00-00-0-1-0---12\--000000-0--00-00-|x2
PM|-x-x-x---------xxxxxx-x--xx-xx-x-x-x--------xxxxxx-x--xx-xx-|
                                                End Breakdown II
Verse IV:
   Guitar I
D||-------------------------------------------------------------------------------|
A||-------------------------------------------------------------------------------|
F||-------------------------------------------------------------------------------|
C||-------------------------------------------------------------------------------|
G||-----8h12p8h12-7h10p7h10-----8h12p8h12-7h10p7h10-----------8h12p8h12-7h10p7h10-|
C||-000---------------------000---------------------000000000---------------------|
PM|-xxx---------------------xxx---------------------xxxxxxxxx---------------------|
 ||
 ||Guitar II
D||---------------------------------------------------------------------------|
A||---------------------------------------------------------------------------|
F||---------------------------------------------------------------------------|
C||-0----------------------(0)------------------------------------------------|
G||-0----------------------(0)--------------------------------5h8p5h8-4h874h7-|
C||-0----------------------(0)----------------------000000000-----------------|
PM|-------------------------------------------------xxxxxxxxx-----------------|

   Guitar I
D||---------------------------------------------|
A||---------------------------------------------|
F||-----------------------------------9h12p9h12-|
C||-------------------------8h11p8h11-----------|
G||---------------7h10p7h10---------------------|
C||-000-8h12p8h12-------------------------------|
PM|-xxx-----------------------------------------| 
 ||
 ||Guitar II
D||-------------------------------------|
A||-------------------------------------|
F||-----------------------------6h9p6h9-|
C||---------------------5h8p5h8---------|
G||-------------4h7p4h7-----------------|
C||-000-5h8p5h8-------------------------|
PM|-xxx---------------------------------|

   Guitar I
D||-------------------------------------------------------------------------------|
A||-------------------------------------------------------------------------------|
F||-------------------------------------------------------------------------------|
C||-------------------------------------------------------------------------------|
G||-----8h12p8h12-7h10p7h10-----8h12p8h12-7h10p7h10-----------8h12p8h12-7h10p7h10-|
C||-000---------------------000---------------------000000000---------------------|
PM|-xxx---------------------xxx---------------------xxxxxxxxx---------------------| 
 ||
 ||Guitar II
D||-------------------------------------------------------------------|
A||-------------------------------------------------------------------|
F||-------------------------------------------------------------------|
C||-------------------------------------------------------------------|
G||-----5h8p5h8-4h7p4h7-----5h8p5h8-4h7p4h7-----------5h8p5h8-4h7p4h7-|
C||-000-----------------000-----------------000000000-----------------|
PM|-xxx-----------------xxx-----------------xxxxxxxxx-----------------|

   Guitar I
D||---------------------------------------------|
A||---------------------------------------------|
F||-----------------------------------9h12p9h12-|
C||-------------------------8h11p8h11-----------|
G||---------------7h10p7h10---------------------|
C||-000-8h12p8h12-------------------------------|
PM|-xxx-----------------------------------------| 
 ||
 ||Guitar II
D||-------------------------------------|
A||-------------------------------------|
F||-----------------------------6h9p6h9-|
C||---------------------5h8p5h8---------|
G||-------------4h7p4h7-----------------|
C||-000-5h8p5h8-------------------------|
PM|-xxx---------------------------------|

   Guitar I
D||-------------------------------------------------------------------------------|
A||-------------------------------------------------------------------------------|
F||-------------------------------------------------------------------------------|
C||-------------------------------------------------------------------------------|
G||-----8h12p8h12-7h10p7h10-----8h12p8h12-7h10p7h10-----------8h12p8h12-7h10p7h10-|
C||-000---------------------000---------------------000000000---------------------|
PM|-xxx---------------------xxx---------------------xxxxxxxxx---------------------| 
 ||
 ||Guitar II
D||-------------------------------------------------------------------|
A||-------------------------------------------------------------------|
F||-------------------------------------------------------------------|
C||-------------------------------------------------------------------|
G||-----5h8p5h8-4h7p4h7-----5h8p5h8-4h7p4h7-----------5h8p5h8-4h7p4h7-|
C||-000-----------------000-----------------000000000-----------------|
PM|-xxx-----------------xxx-----------------xxxxxxxxx-----------------|

   Guitar I
D||---------------------------------------------|
A||---------------------------------------------|
F||-----------------------------------9h12p9h12-|
C||-------------------------8h11p8h11-----------|
G||---------------7h10p7h10---------------------|
C||-000-8h12p8h12-------------------------------|
PM|-xxx-----------------------------------------| 
 ||
 ||Guitar II
D||-------------------------------------|
A||-------------------------------------|
F||-----------------------------6h9p6h9-|
C||---------------------5h8p5h8---------|
G||-------------4h7p4h7-----------------|
C||-000-5h8p5h8-------------------------|
PM|-xxx---------------------------------|

   Guitar I
D||-------------------------------------------------------------------------------|
A||-------------------------------------------------------------------------------|
F||-------------------------------------------------------------------------------|
C||-------------------------------------------------------------------------------|
G||-----8h12p8h12-7h10p7h10-----8h12p8h12-7h10p7h10-----------8h12p8h12-7h10p7h10-|
C||-000---------------------000---------------------000000000---------------------|
PM|-xxx---------------------xxx---------------------xxxxxxxxx---------------------| 
 ||
 ||Guitar II
D||-------------------------------------------------------------------|
A||-------------------------------------------------------------------|
F||-------------------------------------------------------------------|
C||-------------------------------------------------------------------|
G||-----5h8p5h8-4h7p4h7-----5h8p5h8-4h7p4h7-----------5h8p5h8-4h7p4h7-|
C||-000-----------------000-----------------000000000-----------------|
PM|-xxx-----------------xxx-----------------xxxxxxxxx-----------------|

   Guitar I
D||---------------------------------------------|
A||---------------------------------------------|
F||-----------------------------------9h12p9h12-|
C||-------------------------8h11p8h11-----------|
G||---------------7h10p7h10---------------------|
C||-000-8h12p8h12-------------------------------|
PM|-xxx-----------------------------------------| 
 ||
 ||Guitar II
D||-------------------------------------|
A||-------------------------------------|
F||-----------------------------6h9p6h9-|
C||---------------------5h8p5h8---------|
G||-------------4h7p4h7-----------------|
C||-000-5h8p5h8-------------------------|
PM|-xxx---------------------------------|

   Guitar I
D||-------------------------------------------------------------------------------|
A||-------------------------------------------------------------------------------|
F||-------------------------------------------------------------------------------|
C||-------------------------------------------------------------------------------|
G||-----8h12p8h12-7h10p7h10-----8h12p8h12-7h10p7h10-----------8h12p8h12-7h10p7h10-|
C||-000---------------------000---------------------000000000---------------------|
PM|-xxx---------------------xxx---------------------xxxxxxxxx---------------------| 
 ||
 ||Guitar II
D||-------------------------------------------------------------------|
A||-------------------------------------------------------------------|
F||-------------------------------------------------------------------|
C||-------------------------------------------------------------------|
G||-----5h8p5h8-4h7p4h7-----5h8p5h8-4h7p4h7-----------5h8p5h8-4h7p4h7-|
C||-000-----------------000-----------------000000000-----------------|
PM|-xxx-----------------xxx-----------------xxxxxxxxx-----------------|
   
   Guitar I
D||----------------------------------------------------------|
A||----------------------------------------------------------|
F||-----------------------------------9h12p9h12--------------|
C||-------------------------8h11p8h11------------------------|
G||---------------7h10p7h10---------------------0------------|
C||-000-8h12p8h12-------------------------------0------------|
PM|-xxx-----------------------------------------x------------| 
 ||
 ||Guitar II
D||--------------------------------------------------|
A||--------------------------------------------------|
F||-----------------------------6h9p6h9--------------|
C||---------------------5h8p5h8----------------------|
G||-------------4h7p4h7-----------------0------------|
C||-000-5h8p5h8-------------------------0------------|
PM|-xxx---------------------------------x------------|
                                          End Verse IV
Verse V:
   Guitars I, II
D||------------------------------------------------------------------------------------|
A||------------------------------------------------------------------------------------|
F||------------------------------------------------------------------------------------|
C||------------------------------------------------------------------------------------|
G||-------4---4---4h5h7--------4---4---4h5h7--------5---5---5h7h8--------5---5---5h7h8-|
C||-0-0-0---0---0--------0-0-0---0---0--------0-0-0---0---0--------0-0-0---0---0-------|x2
PM|-x-x-x---x---x--------x-x-x---x---x--------x-x-x---x---x--------x-x-x---x---x-------|

   Guitar I
D||------------------------------------------------------------------------------------------|
A||------------------------------------------------------------------------------------------|
F||------------------------------------------------------------------------------------------|
C||------------------------------------------------------------------------------------------|
G||-------7---7---7h8h10--------7---7---7h8h10--------8---8---8h10h12--------8---8---8h10h12-|
C||-0-0-0---0---0---------0-0-0---0---0---------0-0-0---0---0----------0-0-0---0---0---------|x2
PM|-x-x-x---x---x---------x-x-x---x---x---------x-x-x---x---x----------x-x-x---x---x---------| 
 ||
 ||Guitar II
D||------------------------------------------------------------------------------------|
A||------------------------------------------------------------------------------------|
F||------------------------------------------------------------------------------------|
C||------------------------------------------------------------------------------------|
G||-------4---4---4h5h7--------4---4---4h5h7--------5---5---5h7h8--------5---5---5h7h8-|
C||-0-0-0---0---0--------0-0-0---0---0--------0-0-0---0---0--------0-0-0---0---0-------|x2
PM|-x-x-x---x---x--------x-x-x---x---x--------x-x-x---x---x--------x-x-x---x---x-------|
                                                                            End Verse V
Breakdown III:
   Guitars I, II
D||------------------------------------------------------------|
A||------------------------------------------------------------|
F||------------------------------------------------------------|
C||------------------------------------------------------------|
G||-0-1-0-----------------------0-1-0----------------------19\-|
C||-0-1-0-----------------------0-1-0----------------------20\-|
PM|-x-x-x-----------------------x-x-x--------------------------|

   Guitars I, II
D||------------------------------------------------------------|
A||------------------------------------------------------------|
F||------------------------------------------------------------|
C||------------------------------------------------------------|
G||-0-1-0-----------------------0-1-0------------------2-0-1-0-|
C||-0-1-0-----------------------0-1-0------------------2-0-1-0-|
PM|-x-x-x-----------------------x-x-x------------------x-x-x-x-|

   Guitars I, II
D||------------------------------------------------------------|
A||------------------------------------------------------------|
F||------------------------------------------------------------|
C||------------------------------------------------------------|
G||-0-1-0--000--0--00-00-000000-0-1-0--000000-0--00-00-000-19\-|
C||-0-1-0--000--0--00-00-000000-0-1-0--000000-0--00-00-000-20\-|x2
PM|-x-x-x--xxx--x--xx-xx-xxxxxx-x-x-x--xxxxxx-x--xx-xx-xxx-----|

Guitars I, II
D||-------|
A||-------|
F||-------|
C||-------|
G||-0-1-0-|
C||-0-1-0-|
PM|-x-x-x-|
          End Breakdown III

            
            
Suggest correction
Creating personal tab
Creating personal tab
You can edit any tab online and save it as your Personal.

You can edit, replace or remove any tab part or add personal notes – all changes will be seen only by you.

Personal tabs can be accessed anytime from any device, even offline.
Learn more »
comments
print report bad tab
10 comments total. Showing first comments.
0 reply
guitarwannabe16 1,036 Mar 07, 2007 02:08 PM

Loads better than the other tabs

0 reply
deaththrashcore 436 Mar 10, 2007 01:44 PM

Sorry guys I made a mistake here... for the begging riff (which is also repeated later) all of the hammers and pulls should look like this: 8h12p88h12p8. Many of my friends have found this confusing so basically just pick once and hammer on and then pull off, then pick again, hammer, pull.

Also still working on the solo.

0 reply
MCRrocks 35 Mar 29, 2007 01:26 PM

you shouldn't have connected all the palm mutes like this ----------, it looks like a seventh string :P

guest
Wanna post a correction for this tab? Suggest correction